Jal - Zindagi Beginning Part of first Solo

Discussion in 'Pakistani Guitar Tabs - Submit or Request' started by Quadrophenia, Sep 24, 2004.

  1. Quadrophenia

    Quadrophenia New Member

    Song Name: Zindagi
    Album: Atif's Jal
    Tabber : Usman [ Quadrophenia ]

    Comments: my first tab ever..could only do the first few bits :annoyed: .please give me some feedback..much appreciated.
    :rockon:



    e|------------------------------------------------------------|
    b|------10--10---8--7---7h8p7---------------------------------|
    g|--------------------9--------9b11----9--7--6---7b8---6------|
    d|--------------------------------------------------------7---|


    e|-------------------------------------------------------|
    b|-------------------------------------------------------|
    g|------------------7----9----7----9b10---7---6----------|
    d|-----------7----9--------------------------------------|
    a|----7----9---------------------------------------------|
    e|-------------------------------------------------------|


    e|------8/10---8--------8----7--------------5------------|
    b|-----------------10-----------7---5----7---------------|
    g|-------------------------------------------------------|
    d|-------------------------------------------------------|
    a|-------------------------------------------------------|
    e|-------------------------------------------------------|
     

Share This Page