jal-sajni starting tabs

Discussion in 'Hindi Guitar Tabs - Submit or Request' started by anubhav27, Feb 5, 2008.

  1. anubhav27

    anubhav27 New Member

    e-----------9---------9-7-9-9-7-9-9-11--9-12-9-11-9-------
    b---9-9-7-9--9-7--------------------------------------12-9
    g----------------9-8-------------------
    d--------------------------------------
    a--------------------------------------
    E--------------------------------------


    exact chords are
    g#m f# c#m d#m
     
  2. piccolomair

    piccolomair New Member

    Im not a great guitarist, but ive seen those same tabs on alot of differnt sites and even youtube clips...yet i dont think they are right. I was messing around with those tabs and well i tabbed my own version, i know its wrong, but i think its closer to the real deal, and hopefully someone can build off of what i did to find the real version of the tabs. Thats my hope...so this is what i got. I know its wrong, just hoping the better guitarists here can fix it for the community....

    --------------------------------------------------------------------------------

    e-----------9----13-12-10-9-7-5-7-7-5-7-----9-----------
    b---9-9-7-9-------------------------------12-----------
    g------------------------------------
    d--------------------------------------
    a--------------------------------------
    E--------------------------------------
     
  3. anubhav27

    anubhav27 New Member

    in the song two guitar are playing the lead maybe u have the second one....plus something of first one!!!!!any ways keep messing it will help u alot....!thanks for reply
     
  4. jazba123

    jazba123 New Member

    E-----------9-----------------------------------------------
    B---7 9 7 9---9 7------------------------------------7---7 9
    G-----------------9 8-----------------------8 8 9 8----8----
    D-----------------------11 10 11 10 11 11-------------------


    go here to see it played by me
     
  5. jazba123

    jazba123 New Member

    E-----------9-----------------------------------------------
    B---7 9 7 9---9 7------------------------------------7---7 9
    G-----------------9 8-----------------------8 8 9 8----8----
    D-----------------------11 10 11 10 11 11-------------------


    go here to see it played by me

    http://www.youtube.com/watch?v=wQpIn-y0ocU
     
  6. tabs_beggar

    tabs_beggar New Member

    wow.........jazba123 u rockz man
    soundzzzzZzzzzZzzzZzzzZzzz so original love emmmmmmmmm :) keep rockin man :)
     
  7. jazba123

    jazba123 New Member

    thanks beggar its ma pleasure
     
  8. amitrichardxess

    amitrichardxess New Member

    sajni- jal


    intro

    E---------------------------4-------------------------------------------------------------------------------
    B-------------------------------7--5--4--------------------------------------4---------5----4-----------
    G-----------------------6------------------6-4-6--6-6-6-6-4-4-6-6---6--------6----6-----6-4----
    D-6-6-6-6-4-4-6-6----------------------------------------------------------------------------------6--
     
  9. amitrichardxess

    amitrichardxess New Member

    sry little error in display so postimg again
    sajni- jal


    intro

    E---------------------------4---------------------------------------------------------------------------
    B-------------------------------7--5--4--------------------------------------4---------5----4-----------
    G-----------------------6------------------6-4-6--6-6-6-6-4-4-6-6---6-------6----6-----6-4----
    D-6-6-6-6-4-4-6-6----------------------------------------------------------------------------------6--
     
  10. amitrichardxess

    amitrichardxess New Member

    sry little error in display so postimg again
    sajni- jal


    intro

    E---------------------------4---------------------------------------------------------------------------
    B-------------------------------7--5--4--------------------------------------4-----5----4-----------
    G-----------------------6------------------6-4-6--6-6-6-6-4-4-6-6---6-------6----6-----6-4----
    D-6-6-6-6-4-4-6-6----------------------------------------------------------------------------------6--
     
  11. arthus_manthan8

    arthus_manthan8 New Member

    urgntly rqrs.....!!!

    GUYS PLZ CAN ANY! LET ME KNW THE SOLO TABS FOR SAJNI-LIVE VERSION......PLZ EMAIL ME THE TABS AT adirocks_1678@yahoo.com
     

Share This Page