Jaan Pehchaan Ho(Golden Hits Rewind) Guitar Chords

Discussion in 'Hindi Guitar Tabs - Submit or Request' started by jimihndrx, Jul 18, 2015.

  1. jimihndrx

    jimihndrx Guitar Hero

    [​IMG]
    Song- Jaan Pehchaan Ho
    Film- Gumnaam(1965)
    Lyrics- Shailendra
    Music- Shankar-Jaikishan
    Singer- Md. Rafi
    Key- G Natural Minor

    Chords- Continuing my "Golden Hits Rewind Series#2"..This week I present you chords & tabs from a Iconic number by the Legendary Music Directors Duo Shankar-Jaikishan.This Number is truly a Bollywood Anthem in nature and it is considered under Genre of World Music.
    For me
    Shankar-Jaikishan will remain the Greatest Bollywood Music Directors along with S.D. Burman and R.D. Burman

    Trivia-
    *This song (with original video clip) is featured in opening credits sequence of Hollywood movie "Ghost World".
    *This song is used as background music in the Heineken Beer Commercial "The Date".
    *This song is used as background music in the video game "Far Cry4".
    *This song remains one and only most covered Hindi song by Foreign Bands worldwide.

    So here we go..


    Intro-
    Drum Roll-Jazz Swing Style

    Rhythm Guitar+Riff1+Horns-(Gm)..(Gm)..(C#dim7)..(Gm)..(C#dim7)..(Bb)..(Gm)..(D7)

    *Riff1(Surf Rock Style)-[2 times]
    E|----------------------------------------------------------
    B|----------------------------------------------------------
    G|----------------------------------------------------------
    D|-------4-5-----4-5-----4-5-------------------------------
    A|---5-5-----5-5-----5-5-----------------------------------
    E|----------------------------------------------------------

    *Riff2(Surf Rock Style)-[2 times]
    E|-----------------------------------------------------------
    B|-----------------------------------------------------------
    G|----------3--------3---------3----------------------------
    D|---3-3-5---3-3-5---3-3-5------------------------------
    A|-----------------------------------------------------------
    E|-----------------------------------------------------------

    *Riff3(Surf Rock Style)
    E|------------------------------------------------------------------------
    B|-------------------------------------------------------------------------
    G|---4-5-7-5-4--------------------3-3--------------------3-3----------
    D|----------------5-5-5-5-5-5-3--------5---2/3-3-3----------5------
    A|----------------------------------5----------------------5--------------
    E|--------------------------------------------------------------------------


    Rhythm Guitar+Drums-(Gm)..(Gm)..

    Horns-(Bb)..(F)..(Gm)..(F)..(Bb)..(F)..(Gm)

    Mukhra:
    {(Gm)Jaan pehchaan ho..
    (Gm)jeena aasan ho..(C)..(Gm)..
    (Gm)jaan pehchaan ho..
    (Gm)jeena aasan ho..
    (Gbar)dil ko churanewalo aankh na churao (Gm)naam toh batao..}-[2 times]

    Interlude1-
    *Guitar(Surf Rock Style)
    E|------------------------------------------------------------------------------------------
    B|-------------------------------------------------------------------------------------------
    G|-------------------------------------------------------------------------------------------
    D|-------------5--5-5-5-5-------------------------------------------------------------------
    A|---7h10-7---------------5------5----3--3-3--5--5-5--6--6-6--10--10-10-9--9-5---
    E|------------------------------0-3-------------------------------------------------------------

    Horns-{(Cm)..(Eb)..(D)}-[2 times]

    Rhythm Guitar+Drums-(Gbar)..(Gm)..(Gm/D)..(D)..(D7)

    Antra:
    Hai..(Gm)aaj ki yeh shaam jawaa..
    (Gm)yun na chali jaye..(Bb)..(Gm)..
    (Gm)aaj ki yeh shaam jawaa yun na chali jaye
    (F)phir se na aayegi yeh kisi ke bulaye
    (F)phir se na aayegi yeh kisi ke bulaye
    (Edim7)phir se na aayegi yeh kisi ke bulaye..(Eb)aaaa...(Gbar)yaa...hoo..hoo..

    Jaan pehchaan ho part repeat

    rest is same


    jimihndrx
    [Total songs covered in IGT-224 songs*]
    [Languages covered- Hindi,Tamil, English, Punjabi & Bengali]
    [Active Since- April 2012]
    (*-Till this post)
     

    Attached Files:

    Last edited: Apr 28, 2017
    Super-Admin likes this.

Share This Page