It's Raining Now

Discussion in 'Hindi Guitar Tabs - Submit or Request' started by nelsondinho, May 2, 2010.

  1. nelsondinho

    nelsondinho New Member

    Band (DESI BAND) - DREAM OUT LOUD !!
    Song - It's Raining Now (tabs)

    intro n thru out the verse..

    E-----------------------
    A---0-------------------
    D-----2----------------2---
    G--------1h2----2-------
    B-------------0---------
    e-----------------------

    E---0--------------------
    A------------------------
    D-----2----------------2---
    G--------1h2----2-------
    B-------------0----------
    e------------------------

    E---2--------------------2-
    A--------------------------
    D------2--------------2----
    G---------2p1---2p1--------
    B-------------------------
    e-------------------------

    E-----------------------------
    A-----------0---------7-------
    D---0--5/7----7----7----7-----
    G----------------4-------------
    B-----------------------------
    e----------------------------- den again repeat from the startin !!



    CHORUS (lisen to the song n strum accordingly)

    Asus
    E---
    A---
    D--2--
    G--2--
    B---
    e---

    Emaj
    E----
    A------2
    D------2
    G--1---
    B-----
    e-----

    F#m
    E----
    A------4---
    D------4---
    G-2---
    B----
    e-----

    Dsus
    E---
    A---
    D---
    G--2-
    B-----3--
    e---

    do help me out if i'm wrong !! CHEERZZ !! \m/(o_O)\m/
     

Share This Page