Ishq - StereoNation

Discussion in 'Hindi Guitar Tabs - Submit or Request' started by NuageOutlaw, Aug 11, 2003.

  1. NuageOutlaw

    NuageOutlaw New Member

    h=hammer
    p=pull of
    /=slide

    Into riff.

    E-------------12-12-12-12-12--12h14-p12--12-------------
    B--12/15----------------------------------------------15-------
    G----------------------------------------------------------------
    D----------------------------------------------------------------
    A----------------------------------------------------------------
    E----------------------------------------------------------------

    E----------------------------------------------------------------
    B-15--13----------------------------------------------------------
    G-----------16-16-16--14h16-p14--14/12--14/16--16-----
    D----------------------------------------------------------------
    A----------------------------------------------------------------
    E----------------------------------------------------------------

    The riff changes by intoducing another slide. This is the
    riff played throughout the rest of the song.

    E------------12-12-12--------------15--14--12---------------
    B-12/15------------------12/15--------------------15---------
    G----------------------------------------------------------------
    D----------------------------------------------------------------
    A----------------------------------------------------------------
    E----------------------------------------------------------------
    Ishq hogaya je tera ikh vaar...............etc
    E----------------------------------------------------------------
    B-15--13--------------------------------------------------------
    G-----------16-16-16--14h16-p14---14/12--14/16--16-----
    D----------------------------------------------------------------
    A----------------------------------------------------------------
    E----------------------------------------------------------------

    E----------------------------------------------------------------
    B----------------------------------------------------------------
    G-12--11----------------------------------------16-16-14-14-
    D-----------14-14-14--16-16-16-17-17-17------------------
    A----------------------------------------------------------------
    E----------------------------------------------------------------

    E-----------------------------------------------------------------------
    B--------------------------------15h17-p15--13h15-p13--12-12---
    G--17-17-17-17-17-17-17------------------------------------------
    D--------------------------------------------------------------------
    A---------------------------------------------------------------------
    E---------------------------------------------------------------------
     

Share This Page