IS KADAR PYAAR HAI tabbed by myself...

Discussion in 'Hindi Guitar Tabs - Submit or Request' started by DARE_DEVIL, Mar 3, 2005.

  1. DARE_DEVIL

    DARE_DEVIL New Member

    HI.. DUDEZ
    I,m new here...
    My name is Yousuf..from Lahore (PAKISTAN).. i,m 16 years old...
    I,m left hand lead guitarist... i love muzik... yaar mein ne guitar kissi ko apni feelings ke baray mein batane ke liye seekha hai... muzik is the best way to show ur feelings..everybody know this... meri story bohat ajeeb hai, kheir..
    here is a song... this song is my feelings...it's my one of the most fav. tracks
    this song is tabbed by myself... give me the comments... c ya take care... ENJOY...


    Symbols:
    ~ - Vibration
    p - Pull off
    h - Hammer on
    s - slide
    m - palm mute
    x - mute
    _____________________________________________________

    IS KADAR PYAAR HAI (SONU NIGAM):

    E|=====================================|
    A|-7-7-------------------------------------------|
    D|-----7~----------7~--7---7---7-5~--3-3-2s7~-|
    G|--------4-7-6-4--------4---4------------------|
    B|-----------------------------------------------|
    e|-----------------------------------------------|
    Is kadar pyaar hai tum se haiaiaiaiai humsafar...
    (Again same pattern)
    ab to jeetey hein bas tumheinnn deikh kar...


    E|=================|
    A|----------------------|
    D|-------------------7~-|
    G|-----6-6-4-6-6-6-4---| (x2)
    B|-5-5------------------|
    e|----------------------|
    Tumhaari har aada... Tumhaari har nazar...


    E|========================================|
    A|---------------------------------------------------|
    D|-------------7------------7-5~--3-3-2s7--7--7-7~-|
    G|-7--4--7--4----4~--4-4-4-4------------------------|
    B|----------------------------------------------------|
    e|----------------------------------------------------|
    Yeh kiaaaa Kehne lagiiii... tumhein hai kia khabar...


    E|=====================================|
    A|-7-7-------------------------------------------|
    D|-----7~----------7~--7---7---7-5~--3-3-2s7~-|
    G|--------4-7-6-4--------4---4------------------|
    B|----------------------------------------------|
    e|----------------------------------------------|
    Is kadar pyaar hai tum se haiaiaiaiai humsafar...
    (Again same pattern)
    ab to jeetey hein bas tumheinnn deikh kar...


    E|========================================|
    A|---------------------------------------------------|
    D|-----------------------7---------------------------|
    G|---------7-6-7----------6--------------------------|
    B|-5-5-6-5-------5-5-6-5----5-8-------8-6-5-5-6-5~-| (x2)
    e|------------------------------5-6-5----------------|
    Lalala lala lala la la.. lalalala laaa lala lala lala la la...


    E|=================================|
    A|------------------------------------------|
    D|-7----------------------------------------|
    G|---6-------------------7~-----7----------|
    B|-----5-5-8-8-7~--5-7-5----6-6---6-5-5~-|
    e|------------------------------------------|
    Dil mein hein beitabiaannnnaananan... Neend urhney lagi...


    E|=========================================|
    A|----------------------------------------------------|
    D|-7------------------------------------------------7-|
    G|---6----------------------7~----------------7-6-4--|
    B|-----5-5-8-8-10-8-7-5-7-5----6-6-6-------5---------|
    e|-----------------------------------5-5-5------------|
    Tere khayaloon se hi aankh bharne lagiiieieieie...


    E|========================================|
    A|----------------------------------------------------|
    D|-7---------7--7----------7-5~--3-3s7--7-7-9-7-7~-|
    G|---4-7-6-4-----4-4-4-4-4---------------------------|
    B|----------------------------------------------------|
    e|----------------------------------------------------|
    Har pal tum ko.. Deikha mein nee kehti hai meri nazar...


    E|==================|
    A|----------------------|
    D|-------------------7~-|
    G|-----6-6-4-6-6-6-4----| (x2)
    B|-5-5------------------|
    e|----------------------|
    Tumhaari har aada... Tumhaari har nazar...


    E|========================================|
    A|---------------------------------------------------|
    D|-------------7------------7-5~--3-3-2s7--7--7-7~-|
    G|-7--4--7--4----4~--4-4-4-4-----------------------|
    B|---------------------------------------------------|
    e|---------------------------------------------------|
    Yeh kiaaaa Kehne lagiiii... tumhein hai kia khabar...


    E|=====================================|
    A|-7-7-------------------------------------------|
    D|-----7~----------7~--7---7---7-5~--3-3-2s7~-|
    G|--------4-7-6-4--------4---4------------------|
    B|----------------------------------------------|
    e|----------------------------------------------|
    Is kadar pyaar hai tum se haiaiaiaiai humsafar...
    (Again same pattern)
    ab to jeetey hein bas tumheinnn deikh kar...


    E|==============================-==========|
    A|----------------------------------------------------|
    D|-----------------------7----------------------------|
    G|---------7-6-7----------6--------------------------|
    B|-5-5-6-5-------5-5-6-5----5-8-------8-6-5-5-6-5~-| (x2)
    e|------------------------------5-6-5----------------|
    Lalala lala lala la la.. lalalala laaa lala lala lala la la...


    E|=================================|
    A|------------------------------------------|
    D|-7----------------------------------------|
    G|---6-------------------7~-----7----------|
    B|-----5-5-8-8-7~--5-7-5----6-6---6-5-5~-|
    e|------------------------------------------|
    Sanson mein basne lagiiii... jab se tu o jane jana...


    E|=========================================|
    A|----------------------------------------------------|
    D|-7------------------------------------------------7-|
    G|---6----------------------7~----------------7-6-4--|
    B|-----5-5-8-8-10-8-7-5-7-5----6-6-6-------5--------|
    e|-----------------------------------5-5-5------------|
    Apna sa lagne lagaaaa... mujh ko saara jahannn...


    E|=========================================|
    A|----------------------------------------------------|
    D|-7---------7--7----------7-5~--3-3s7--7-7-9-7-7~-|
    G|---4-7-6-4-----4-4-4-4-4---------------------------|
    B|----------------------------------------------------|
    e|----------------------------------------------------|
    Mehka mehka.. lagta mujh ko khushioon se dil ka asar...


    E|==================|
    A|-----------------------|
    D|-------------------7~-|
    G|-----6-6-4-6-6-6-4----| (x2)
    B|-5-5-------------------|
    e|-----------------------|
    Tumhaari har aada... Tumhaari har nazar...


    E|========================================|
    A|---------------------------------------------------|
    D|-------------7------------7-5~--3-3-2s7--7--7-7~-|
    G|-7--4--7--4----4~--4-4-4-4-----------------------|
    B|---------------------------------------------------|
    e|---------------------------------------------------|
    Yeh kiaaaa Kehne lagiiii... tumhein hai kia khabar...


    E|=====================================|
    A|-7-7-------------------------------------------|
    D|-----7~----------7~--7---7---7-5~--3-3-2s7~-|
    G|--------4-7-6-4--------4---4------------------|
    B|-----------------------------------------------|
    e|-----------------------------------------------|
    Is kadar pyaar hai tum se haiaiaiaiai humsafar...
    (Again same pattern)
    ab to jeetey hein bas tumheinnn deikh kar...

    E|==================|
    A|-----------------------|
    D|-------------------7~-|
    G|-----6-6-4-6-6-6-4----| (x2)
    B|-5-5-------------------|
    e|-----------------------|
    Tumhaari har aada... Tumhaari har nazar...

    E|========================================|
    A|---------------------------------------------------|
    D|-------------7------------7-5~--3-3-2s7--7--7-7~-|
    G|-7--4--7--4----4~--4-4-4-4-----------------------|
    B|---------------------------------------------------|
    e|---------------------------------------------------|
    Yeh kiaaaa Kehne lagiiii... tumhein hai kia khabar...


    E|=======================================|
    A|--------------------------------------------------|
    D|-----------------------7--------------------------|
    G|---------7-6-7----------6-------------------------|
    B|-5-5-6-5-------5-5-6-5----5-8-------8-6-5-5-6-5-| (x4)
    e|------------------------------5-6-5---------------|
    Lalala lala lala la la.. lalalala laaa lala lala lala la la...
     
  2. folkpoet80

    folkpoet80 New Member

    do you have chords for this??
     
  3. abhimanjrekar

    abhimanjrekar ----> Zhol-Man<----

    ^^ ra ya sure u tabbed it ?? if yes its good..still i ask it again.....
     

Share This Page