Irtaash - Kaali Raatien

Discussion in 'Pakistani Guitar Tabs - Submit or Request' started by Aka Oz, Feb 3, 2006.

  1. Aka Oz

    Aka Oz /\K/\ - Ozy

    THIS IS MA OWN WRK ND PLZ DO GIV ME REPS...welll da song is not on a scale...........but this sound da most closest ..........u can get da song frm irtaash.com

    A5 (577xxx)
    G5(355xxx)
    F5(133xxx)



    Intro.................Ply da intro 3 tymes
    E|----------------------------------------------------------------
    B|----------------------------------------------------------------
    G|----------------------------------------------------------------
    D|----------------------7------------------------------------------
    A|---------------7------------7-----------------------------------
    E|------5---------------------------------------------------------- (ply it 2 tymes...da second tyme ply a bit faster)


    E|----------------------------------------------------------------
    B|----------------------------------------------------------------
    G|----------------------------------------------------------------
    D|----------------------3------------------------------------------
    A|---------------3------------3-----------------------------------
    E|-------1---------------------------------------------------------


    E|----------------------------------------------------------------
    B|----------------------------------------------------------------
    G|----------------------------------------------------------------
    D|----------------------5------------------------------------------
    A|---------------5------------5-----------------------------------
    E|------3----------------------------------------------------------


    Da Rythem is on pwer chrds

    Strum A5 wid palm mute....Da pattern is like this DU*D....(* mean mute )

    Then da rythem go in this pattern A5 G5 F5 (da strummin pattern is DU*D)

    DA BassNOte are A G F



    At da end intro play da intro
     
    notty_lad likes this.
  2. kennethmiranda

    kennethmiranda New Member

    sounds ok.........................but does sound a but similar dont know remember exactly or mayb it dosent or mayb its the chord progression what makes it fell like tat to me.................how long have ay been playing the guitar........................I have been playing since about 6 months.........
     
  3. Aka Oz

    Aka Oz /\K/\ - Ozy

    yaaaaaaar but im tryin to get da original scale
     
  4. Aka Oz

    Aka Oz /\K/\ - Ozy

    guyz plzz reply
     
  5. Aka Oz

    Aka Oz /\K/\ - Ozy

    ma waitin.............
     
  6. junoonist

    junoonist New Member

    need more accuration !
     
  7. Aka Oz

    Aka Oz /\K/\ - Ozy

    well i hav found tht closest but stil sreachin for a orginal scale
     
  8. knight_guitar

    knight_guitar Lead Guitarist

    ok.. does any of u guys got "irtaash" main song "irtaash" .. if u got .. pm me the link.. !!
     
  9. kasmuni

    kasmuni New Member

    Try B D E.

    0244 , 0577 , 0799 for the chords. You can check the pattern from the song.


    G - 7
    D - 7 ^h 9 9
    A -
    E
     
  10. -AJ

    -AJ New Member

    I use,
    5 8 10
    7 10 12
    7 10 12


    for the power chords...
     
  11. limaj_daas

    limaj_daas Guitar Pro Maniac

    The song is in Amin and most of the leads are in the Amin Pentatonic box.
     
  12. EP/*rocks*/

    EP/*rocks*/ New Member

    not a much impressive song look like they hv pasted some others band music and rithm


    keep rocking/ep/-zindabaad
     

Share This Page