Intro Tabs of Incomplete by Backsstreet Boys

Discussion in 'English Guitar Tabs - Submit or Request' started by ayad, Sep 5, 2005.

  1. ayad

    ayad New Member

    hey guys check out my version of incomplete. I want comments for it . so here it is

    E-------------------------------------
    B-------------------------------------
    G--2------1-----1-------------------
    D------4------2-----2---2--1-----4
    A-------------------------------------
    E-------------------------------------

    E---------------------------------------
    B---------------------------------------
    G--2------1----1----------------------
    D------4------2----2---4----2--1----
    A------------------------------------4-
    E---------------------------------------
    thts all guys
    dont forget to comment and i need reps for it :rock:
    :cool:
     
  2. ayad

    ayad New Member

    whats the problem guyz..... ineed some comments
     
  3. .::k::.

    .::k::. Banned


    woow ur own version n u need reps

    check this


    Incomplete Tab by Backstreet Boys, www.Ultimate-Guitar.Com ยท Incomplete Tab @ 911Tabs.Com

    Backstreet Boys - Incomplete

    This is the first time i've ever tabbed anything.
    As a first attempt, I think i've been able to get the intro of the song pretty accurate.
    Please feel free to correct, or figure out the rest. I'm pretty sure that the intro is
    here and there throughout the song. ... i'm not a 100% accurate on the chords. But I
    think verse my begin
    with Fm

    Intro:
    |----------------------------------|
    |----------------------------------|
    |--2-------1------1----------------|
    |-----4-------2------2-2-1--4------|
    |----------------------------------|
    |----------------------------------|

    |----------------------------------|
    |----------------------------------|
    |--2-------1------1----------------|
    |-----4-------2------2---2-1-------|
    |----------------------------4-----|
    |----------------------------------|

    source http://www.ultimate-guitar.com/tabs/b/backstreet_boys/incomplete_intro_tab.htm
     
    .:SpY_GaMe:. likes this.
  4. vinoth_007

    vinoth_007 New Member

    Yo dude. Your tab focuses on the main notes only...if you listen to the song carefully u can hear 3 notes before each pair in your tab..this is my version...

    E-------------------------------------------------------------
    B-------------------------------------------------------------
    G-------2-------------1--------------1----------------------
    D-----4----4-------2----2---------2----2------2--1----4-
    A---4-------------2--------------2--------------------------
    E-2-------------0--------------0----------------------------

    E---------------------------------------------------------------
    B---------------------------------------------------------------
    G-------2-------------1--------------1------------------------
    D-----4----4-------2----2---------2----2-----4---2--1------
    A---4-------------2--------------2--------------------------4-
    E-2-------------0--------------0------------------------------

    I feel this is more closer to the original ...Chk it out n comment..;)
     
  5. skaw

    skaw snooze

    E-------------------------------------------------------------
    B-------------------------------------------------------------
    G-------2-------------1--------------1----------------------
    D-----4----4-------2----2---------2----2------2--1---1-4-
    A---4-------------2--------------2--------------------------
    E-2-------------0--------------0----------------------------

    E---------------------------------------------------------------
    B---------------------------------------------------------------
    G-------2-------------1--------------1------------------------
    D-----4----4-------2----2---------2----2-----4---2--1------
    A---4-------------2--------------2--------------------------4-
    E-2-------------0--------------0------------------------------

    this sounds better (only first part is changed, that too with only 1 note placed before the last note)

    http://www.indianguitartabs.com/showthread.php?t=10522&highlight=incomplete

    i personally find it best to be played this way.
     
    .:SpY_GaMe:. likes this.
  6. coolguy

    coolguy New Member

    i think ayad did a good job
     

Share This Page