intro tabs-dil to bachcha hai ji

Discussion in 'Hindi Guitar Tabs - Submit or Request' started by valueless, Oct 6, 2010.

  1. valueless

    valueless New Member

    SONG-dil to bachcha hai ji
    notes-intro & middle piece
    tabbed by-valueless


    E---------5----------------5-----------
    B--8--7-8---8-7-5---8--7-8---8-7-5-----

    E--------------------------------------
    B--7--5-7-8-7-5-----5------------------
    G---------------8-6--------------------

    E--------------------------------------
    B--9-----9-10-12-10-9------------------
    G-----11---------------11--------------

    E--------------------------------------
    B--9-----9-10-12-10-9------------------
    G-----11---------------11--------------

    E--10--9-10-12-10-9--------------------
    B-------------------12-10-12-----------
    G--------------------------------------

    E--5----------------------5------------
    B-----8-7-5------5-8--7-8---8-7-5------
    G------------8-6-----------------------

    repetation.....

    first select this, then copy it by ctrl+c,
    then paste it in notepad to see proper
    places of tabs.

    reply, if u like it............
     

Share This Page