Intro Of STAIRWAY TO HEAVEN

Discussion in 'English Guitar Tabs - Submit or Request' started by guitar_player07, Aug 13, 2006.

  1. guitar_player07

    guitar_player07 New Member

    E------5-7-----7-|-8-----8-2-----2-|-0---------0-----|-----------------|
    B-----5-----5-----|---5-------3-----|---1---1-----1---|-0-1-1-----------|
    G---5---------5---|-----5-------2---|-----2---------2-|-0-2-2-----------|
    D-7-------6-------|-5-------4-------|-3---------------|-----------------|
    A-----------------|-----------------|-----------------|-2-0-0---0--/8-7-|
    E-----------------|-----------------|-----------------|-----------------|

    E---------7-----7-|-8-----8-2-----2-|-0---------0-----|-----------------|
    B-------5---5-----|---5-------3-----|---1---1-----1---|-0-1-1-----------|
    G-----5-------5---|-----5-------2---|-----2---------2-|-0-2-2-----------|
    D---7-----6-------|-5-------4-------|-3---------------|-----------------|
    A-0---------------|-----------------|-----------------|-2-0-0-------0-2-|
    E-----------------|-----------------|-----------------|-----------------|

    E-------0-2-----2-|-0-----0----------|---------3-----3-|
    B-----------3-----|---1-----0h1------|-1-----1---0-----|
    G-----0-------2---|-----2-------2----|---0---------0---|
    D---2-----0-------|-3----------------|-----2-----------|
    A-3---------------|---------0----0-2-|-3---------------|
    E-----------------|------------------|---------3-------|
     
  2. Glass

    Glass New Member

    Will give a try soon...Let u knw how it turnd out..
     
  3. Morbid_Angel

    Morbid_Angel Sid the sloth

    Please post in english guitar tabs forum.

    Anyway i'll upload the whole songbook of Stairway to heaven with exact timing soon.
     
  4. Morbid_Angel

    Morbid_Angel Sid the sloth

  5. g0g0l

    g0g0l ! SpAm

    Hmmm.. Can u post other's work without his or her permission?? :think:
    What do the mods say>>?? :grin:
     
  6. faraz khan

    faraz khan Fkay'zzz .......GoNe MaD!

    ummmm ..... I think if he declares that it is not his work and then posts it then there shouldnt be Ny problem!
     
  7. Morbid_Angel

    Morbid_Angel Sid the sloth

    @sugata
    Read the book and tell me who worked on it.
    Also, this file was locally hosted, no copyrights and the owner dont want credit.
     
  8. vini

    vini Repeat Offender

    can someone plz tell which finger do use to play the notes..gimme a rough idea..
     
  9. Morbid_Angel

    Morbid_Angel Sid the sloth

    bit messy..cant make out
     
  10. faraz khan

    faraz khan Fkay'zzz .......GoNe MaD!

    they are too tough.. can sumone juzt even post the rec!!!
     
  11. armani4eva

    armani4eva New Member

    found this on guitartabs site, it may be a little clearer
     

    Attached Files:

  12. faiqrock

    faiqrock XaiQ

    Ok vini let me record a Video For you....Brb
     
  13. faiqrock

    faiqrock XaiQ

    ok vini here are the link's
    i uploaded video's on youtube...i was bit confused while recording the Video:p: so neva mind...
    ok i recorded 2 video's,1 is Arpeggio pattern For the Right hand...u have to play it with hands Not with Pick
    and other 1 is For the Finger Positions on Fretboard
    So here are the links

    Arpeggio:http://www.youtube.com/watch?v=ix_oYxND1tA
    Positions:http://www.youtube.com/watch?v=wDgWMBPxNxc
    Code:
    TABS:
    E|-------5-|-7-----7-|-8----8-|-2-----2-|-0-------0----|-------|---------|-------5-|-7-----7-|-8----8-|-2-----2-|-0-------0----|--------|
    B|-----5---|---5-----|--5-----|---3-----|---1--1---1---|-------|---------|-----5---|---5-----|--5-----|---3-----|---1--1---1---|--------|
    G|---5-----|-----5---|----5---|-----2---|-----2------2-|-0-2-2-|---------|---5-----|-----5---|----5---|-----2---|-----2------2-|-0-2-2--|
    D|-7-------|-6-------|-5------|-4-------|-3------------|-------|---------|-7-------|-6-------|-5------|-4-------|-3------------|--------|
    A|---------|---------|--------|---------|--------------|-2-0-0—|-0-2/8-7-|---------|---------|--------|---------|--------------|-2-0-0--|
    E|---------|---------|--------|---------|--------------|-------|---------|---------|---------|--------|---------|--------------|--------| 
     
    vini and Morbid_Angel like this.
  14. Morbid_Angel

    Morbid_Angel Sid the sloth

    very nice man thanx

    reps
     
  15. vini

    vini Repeat Offender

    @faiqrock
    thanx for being kind bro
    thanx a lot indeed :)


    reps
     
  16. faiqrock

    faiqrock XaiQ

    @arnold: No prob bro any time ;)
    @vini: My pleasure sweet sister (^_^) ;)
     
    faraz khan likes this.
  17. faraz khan

    faraz khan Fkay'zzz .......GoNe MaD!

    hey bros of all ,, thnx for it ,, it was damn gud!!!
    include me too in your bro list ;)
     
  18. faiqrock

    faiqrock XaiQ

    lol thnx lil bro...
    k u r in my bro's list now :p:
    :beer:
     

Share This Page