Intro- My guardian angel

Discussion in 'Pakistani Guitar Tabs - Submit or Request' started by Quadrophenia, Apr 11, 2005.

  1. Quadrophenia

    Quadrophenia New Member

    My guardian angel Shallum Xavier

    intro tabbed by : me :)

    e-----3/11/10--10--9-6h8--7-------------------------------------
    b--------------------------8----7h8p7h8p7---7h8h10----7/10-----
    g----------------------------------------------------------------


    e---------------------------------------------------------
    b-8p7h8p7h8p7--7/3-3p2--3-2--2/10--8-7------------------
    g---------------------------------------------------------


    b----------9--8hold--9/11--9--9p8h9p8----------------------------
    b-7h8h10--------------------------------10--8--7--7-8-7/10-------
    b---------------------------------------------------------


    e------------15---------------------------------------------
    b------6/15-----------10---12/13--12--12-------------------
    g----8-------------12----------------------------------------

    e---8/11-9--9p8h9p8h9p8--------------------------------
    (A) b--------------------------10--8--7--7h8h10-10(vibrato)--
    g---------------------------------------------------------


    the above part is repeated again from the pulloff part and then
    b-7h8h10---8-7----------------------------------------
    g----------------9--7h9-7-5h7-5-5-------------------


    Note: the hammer ons and pull offs have got to be heard because reading it is quite hard.i suggest mess around abit.
    also i know its not spot on.its about 60 percent there.
    thats about it for now i guess feedback wud be appreciated .
    :rockon:
     

Share This Page