Intro & Interlude tabs of pehli nazar R.A.C.E

Discussion in 'Hindi Guitar Tabs - Submit or Request' started by amitrichardxess, Feb 20, 2008.

  1. amitrichardxess

    amitrichardxess New Member

    Notaions used
    Sm - small bend about quater tone
    bu1/4- bend up string 1/4 th of that note
    s- slide to that note
    / - slide into from below or out of upwards
    \ - slide into from above or out of downwards
    rb- reverse bend


    intro of the song and this is also played in background time to time in song and also in line "Baby ilove u"
    ......Sm..........Sm
    E ----9----------7---------------------5----7----9---------7-------5--------------------
    B ----------10-------9-9s10-10------7----9---10--10----9---9---7----5s3--3-------
    G ---------------------------------------------------------------------------------------------
    D ---------------------------------------------------------------------------------------------
    A ---------------------------------------------------------------------------------------------
    E ---------------------------------------------------------------------------------------------



    E ------5----7----9-----------7-----------------------5------------------------------------
    B ------7----9---10----------9-----------------------7----------------7-----------------
    G ----------------------------------------------------------------------7-----------------
    D ---------------------------------------------------------------------------------------------
    A ---------------------------------------------------------------------------------------------
    E ---------------------------------------------------------------------------------------------
    ....................pehli......... nazar mein kaisa ......jadoo kar....... diya

    E ------5----7----9---------7-------------------5------------------------------------------
    B ------7----9---10--------9-------------------7-------------------------------------------
    G ------------------------------------------------------------------------------------------
    D ---------------------------------------------------------------------------------------------
    A ---------------------------------------------------------------------------------------------
    E ---------------------------------------------------------------------------------------------
    ................tera ban.... baitha hai.... mera jiya


    E ------5----7----9-----------7-----------------------5------------------------------------
    B ------7----9---10----------9-----------------------7----------------7-----------------
    G ----------------------------------------------------------------------7-----------------
    D ---------------------------------------------------------------------------------------------
    A ---------------------------------------------------------------------------------------------
    E ---------------------------------------------------------------------------------------------
    .............jane kya......... hoga kya...................hoga kya ....pata



    E ------5----7----9---------7-------------------5-----------------------------------------
    B ------7----9---10--------9-------------------7-----------------------------------------
    G -------------------------------------------------------------------------------------------
    D ---------------------------------------------------------------------------------------------
    A ---------------------------------------------------------------------------------------------
    E ---------------------------------------------------------------------------------------------
    ....................is pal ko... milke aa jee..... le zara


    Interlude ..................................................................1/4
    ................................................................................bu
    E --------------------------------------------------------------------------------------------------12--10-----10----------
    B ------------------------------------------12---10-10----12s14--14s12\--------10-14-10------------14-----14--12\--
    G --------------6--7----9s11---9-------------------------------------------------------------------------------------------
    D ---7----9-----------------------------------------------------------------------------------------------------------------
    A --------------------------------------------------------------------------------------------------------------------------
    E --------------------------------------------------------------------------------------------------------------------------

    ............................1/4............1/4................1/2
    ............................bu..............bu................bu.......rb
    E-------------10-14s17---16-17s19------17-19s21------21-----21s17-17-17-17-17-17-17-17------
    B -----------------------------------------------------------------------------------------------------------------------
    G -----------------------------------------------------------------------------------------------------------------------
    D ----------------------------------------------------------------------------------------------------------------------
    A ---------------------------------------------------------------------------------------------------------------------
    E ---------------------------------------------------------------------------------------------------------------------

    i've tried to write the tabs of pehli nazar check this out ,dont know all notations. I hope u will understand it and u'll defenetlly enjoy it.....

    Chords of this songs is in my previous posting
    chk here http://www.indianguitartabs.com/showthread.php?t=34256
     
  2. amitrichardxess

    amitrichardxess New Member

    correct me also , if needed!!!!!!! thanx
     
  3. jim4u18

    jim4u18 New Member

    GR8 work with the interlude..intro doesnt sound proper
    for intro
    E---5-- use E---5-- and for 7 7
    B---5--------B---7-----------7 9
     
  4. amitrichardxess

    amitrichardxess New Member

    As u have sugested i checked it and yaa u r rite man. thanks for correction
    the scale also matches now and i have made the changes. still check it.
    thnks.
     

Share This Page