ilangatu veesuthe - bass tabs

Discussion in 'Tamil Guitar Tabs - Submit or Request' started by friend4all, Sep 27, 2004.

  1. friend4all

    friend4all New Member

    [REQ]:bass tabs;ilangatu veesuthe from Pitamaghan

    hi evryon,
    Me new in this forum. can anyone get me the bass tabs for 'ilangatu veesuthe' from the film 'Pitamaghan'..shall be realyy grateful
     
  2. ananth222

    ananth222 Beginner

    wow raja bass lines rock
    this one sounds great.. will post tabs soon..
    unless someone knows it already and posts
     
  3. ananth222

    ananth222 Beginner

    nice song
    from first impressions, tab for the inital singing part sounds like this:
    (I heard 2 online versions that seemed to be on different pitches! so transpose to ur pitch if u have to. and == means sustain note)
    Code:
    G--------------------------------|--------------------
    D------7---5/7---5-7-8-7h8p7-----|-----7---5-7-8-7----
    A-5===-----------------------8===|5===----------------
    E--------------------------------|--------------------
    
    pls see if this sounds ok.
    will listen and post the rest later
     
  4. friend4all

    friend4all New Member

    so far so good

    dude,
    thanx a lot 4 the beginning. n also expectin' more...u did it pretty fast.
    c ya
     
  5. ananth222

    ananth222 Beginner

    Hi dude,
    heres as much as I could figure out in this song, dunno if its all correct
    first, theres a bass line in the intro, it goes something like this:

    Code:
    G-----------77----------7p0h2~~~---7p0h2--------------------
    D---------------7~~~~---------------------------------------
    A-0-/5-0-/5-------------------------------------------------
    E-----------------------------------------------------------
    
    Then the song starts with this
    Code:
    G--------------------------------|--------------------------
    D----5/7--7-----5--7--8--7h8p7---|----5/7----5--7--8--7-----
    A-5----------------------------8-|-5------------------------
    E--------------------------------|--------------------------
    
    when it comes to "valayaadha moongilil" it goes something like this:
    Code:
    G---------------7--9--10--9h10p9---|-----7------7--9--7-----
    D----5/7--7------------------------|-7------10--------------
    A-5-----------------------------10-|------------------------
    E----------------------------------|------------------------
    
    
    G-9--7------5--------|-----7------7--9--7-------------------
    D-------7--------5---|-7------10----------------------------
    A--------------------|--------------------------------------
    E--------------------|--------------------------------------
    
    after that before the female voice comes in, theres this riff:
    Code:
    G--7-----------------------
    D-----7--------------------
    A--------5-----7--8--7-----
    E-----------------------5--
    
    the same pattern follows for all the pallavi part.

    for the charanam, the bass notes are something like this:

    (play top string 5th fret A and top string 1st fret F)
    (A)pinni pinni chinna... (at end u can play a slide from F to A)
    (A)nenjai alli... (Go to F as A-G-F)
    (F)Onnukkonnu thaan... (at end play C-D and go to F of next bar)
    (F)Uravu ellaam...

    and so on till u get:
    (D)Nae (C)thu (F)thanimaiyila....
    (D)Yaa (C)rum (F)thunaiyilla...
    similar next 2 lines

    then:
    (D)Ulagathil (C)ethuvum (D)
    (D)thanichi (C)illaye (D)

    (D)kozhalil (C)raagam (A)manasil (F)vaasam
    (C)Saenthathu poala

    sorry abt the delay dude.
    hope u like the tabs
     
  6. friend4all

    friend4all New Member

    hi friend,
    that was real exhaustive stuff..thanx a lot.
     

Share This Page