Ik Din Aye ga EarthQuake

Discussion in 'Pakistani Guitar Tabs - Submit or Request' started by Lahori_rocker, Jan 12, 2006.

  1. Lahori_rocker

    Lahori_rocker Guitar God left IGT

    Band:JAL
    Song:Ik Din Aye GA (Earthquak version)
    Posted By LahorI Rocker


    Kadam ruktay nahi
    jab saath ho sada
    KAbhi martay nahi jo mann mai ho sada
    mani nahi hum nay haar
    A dese ko phir say sawarrrrr


    e-0--0----------------------------------
    B-0--0----------------------------------
    G-9--9-----------------------------------
    D-9--9-----------------------------------
    A-7--7-----------------------------------
    E-0--0-----------------------------------
    Kay dil tu rona nahin

    e-0-0------------------------------------ e-----0-0----------------------------
    B-0-0------------------------------------ b-----0-0-----------------------------
    G-9-9------------------------------------ g-----6-6----------------------------------
    D-9-9---------------------------------or D---- 6-6-------------------------------
    A-x-x----------------------------------- A-----4-4------------------------------
    E-9-9----------------------------------- E-----0-0------------------------------------
    Kay khuwab adhore nahin


    e-0--0----------------------------------
    B-0--0----------------------------------
    G-9--9-----------------------------------
    D-9--9-----------------------------------
    A-7--7-----------------------------------
    E-0--0-----------------------------------
    Kay armaan saray teray

    e-0-0------------------------------------ e-----0-0----------------------------
    B-0-0------------------------------------ b-----0-0-----------------------------
    G-9-9------------------------------------ g-----6-6----------------------------------
    D-9-9---------------------------------or D---- 6-6-------------------------------
    A-x-x----------------------------------- A-----4-4------------------------------
    E-9-9----------------------------------- E-----0-0------------------------------------
    hongay puray kabhi

    e-0-0-----------------------------------
    B-0-0------------------------------------
    G-2-4------------------------------------
    D-2-4------------------------------------
    A-0-2-----------------------------------
    E-0-0---------------------------------
    aik din aaye ga tu youn samaye ga


    e-0--0----------------------------------
    B-0--0----------------------------------
    G-9--9-----------------------------------
    D-9--9-----------------------------------
    A-7--7-----------------------------------
    E-0--0-----------------------------------

    hooo hoo hooooooooooooooooooooooooooooo

    e-0-0------------------------------------ e-----0-0----------------------------
    B-0-0------------------------------------ b-----0-0-----------------------------
    G-9-9------------------------------------ g-----6-6----------------------------------
    D-9-9--------------------------------or D---- 6-6-------------------------------
    A-x-x----------------------------------- A-----4-4------------------------------
    E-9-9----------------------------------- E-----0-0------------------------------------
    hooo hoo hooooooooooooooooooooooooooooo

    Solo:


    e-11-11--12-12s14-11h12-11--9-------------------------------------------------------------0-0-0----0-0-------0-0-0---------
    B-----------------------------------------7--9-9-----------------------------------------------9-9-9-12-9-9-5-7-5-9-9-9-12-7-7-5---
    G------------------------------------------------8-8-9-9s11-8-8h9-8-4-------4-6s8-9-11-------------
    D--------------------------------------------------------------------------4-6-6----------------------------
    A---------------------------------------------------------------------------------------------------
    E-------------------------------------------------------------------------------------------------------


    nd rest of the song is on the same chords nd this is last lyrics

    Kadam ruktay nahi
    jab saath ho sada
    KAbhi martay nahi jo mann mai ho sada
    mani nahi hum nay haar
    A dese ko phir say sawarrrrr

    nd here is the link for the audio of solo

    http://www.soundclick.com/bands/pagemusic.cfm?bandID=388035 :rule: :rule:
     
    aeg0 likes this.
  2. aeg0

    aeg0 Guitarıng Alchemist

    finally....nice effort LR. reps for u.
     
  3. Lahori_rocker

    Lahori_rocker Guitar God left IGT

    thanx mercury
     
  4. Lahori_rocker

    Lahori_rocker Guitar God left IGT

    yaar 36 views nd only one reply come on yaar reply
     
  5. guitar_king2006

    guitar_king2006 New Member

    great work lahori ...reps for u
     
  6. guitarixm

    guitarixm New Member

    gud wrk dude
     
  7. Lahori_rocker

    Lahori_rocker Guitar God left IGT

    thanx guitarixm
     
  8. larsan

    larsan K-Dash

    awesome man.....nice work:)
     
  9. Lahori_rocker

    Lahori_rocker Guitar God left IGT

    thanx larsan koi to hai ;)
     
  10. aeg0

    aeg0 Guitarıng Alchemist

    ur tabs for the solo are confusing. there are 2 guitars in the solo.
     
  11. Lahori_rocker

    Lahori_rocker Guitar God left IGT

    yeah i know there r two guitars chek my audio file then u can able to play my solo tabs....
     

Share This Page