i need easy tabs

Discussion in 'Pakistani Guitar Tabs - Submit or Request' started by mustansir, Sep 24, 2004.

  1. mustansir

    mustansir New Member

    hi guys
    i have been on this forum lately and have seen tht u guys are of a great hlep so please i need so easty one string tabs of as many songs as possible i mean pakiatni indian enhglish nything.... a s i ama beginner so i need to learn some .... the ones like someone gave for aadat the easiset way to do it ... so guys please help me out.
     
  2. Zaya

    Zaya New Member

    DHOOM MACHALE!
    E----3--3--3--2-3-2-0--3--3--3--2-3-2-0--2--2--2--0---2-0--------------
    B-----------------------------------------------------3-------------------
    G-------------------------------------------------------------------------
    D-------------------------------------------------------------------------
    A-------------------------------------------------------------------------
    E-------------------------------------------------------------------------
    Repeat

    E---7-7-7-7-7-7-7-8-7--5-5-5-5-5-5-5-7-5--3-3-3-3-3-3-3-5-3-----------
    B-------------------------------------------------------------------------
    G-------------------------------------------------------------------------
    D-------------------------------------------------------------------------
    A-------------------------------------------------------------------------
    E-------------------------------------------------------------------------


    E---2-3-2-3-3-2-3-2------------------------------------------------------
    B-------------------------------------------------------------------------
    G-------------------------------------------------------------------------
    D-------------------------------------------------------------------------
    A-------------------------------------------------------------------------
    E-------------------------------------------------------------------------


    E----0-7-5-7-3-5-3-1-0------<---repeat----------------------------------
    B-------------------------------------------------------------------------
    G-------------------------------------------------------------------------
    D-------------------------------------------------------------------------
    A-------------------------------------------------------------------------
    E-------------------------------------------------------------------------
     
  3. Quadrophenia

    Quadrophenia New Member

    easy song?..thats not a song..thats a one string songs tune..if thats what u want to be doing..get rid of the rest of the 5 strings :p ..put some effort into it..and it'll pay of :rockon:
     
  4. BaAaLi

    BaAaLi New Member

    Buddy.... Well.. U r a beginner rite !?! u should b learning Chords rite now... rather than juzt play 1 string Song's tune... I m learning guitar for about 40 days.. and NOW i can play some songs(not the 1 string thing)... well... if u wanna learn some easy chords... do reply n i'll tell u the chords and some tips that i used...

    Tujhe dekha to ye jana sana


    0-0-0-7-5-7-3-5-8-7
    Tujhe dekha to ye jana sanam

    0-0-0-7-5-7-3-5-3-2
    pyar hota hai dewana sanam

    -------------------------
    Jadu teri nazar( I don't remember the guy who posted it here )

    E|-------------------------------------------------------------||
    B|-------------------------------------------------------------||
    G|----3-5-3--------------------------------------------------||
    D|------------3-5-3-3-5-3-1----------------------------||
    A|-------------------------------------------------------------||
    E|-------------------------------------------------------------||
    mere khwabo ki tasavir hai tu.........


    E|-------------------------------------------------------------||
    B|-------------------------------------------------------------||
    G|---------8-10-8-7-7-5-3-5-3-3 ---------||
    D|---5-5-------------------------------------------||
    A|------------------------------------------------------------||
    E|-------------------------------------------------------------||
    bekhar meri takadir hai tu...

    E|------------------------------------------------------------||
    B|------------------------------------------------------------||
    G|---------8-10-8-7-5-7-5-3-5-7---------------------||
    D|------------------------------------------------------------||
    A|------------------------------------------------------------||
    E|------------------------------------------------------------||

    tu kisi...aur ki ho na jana...

    E|------------------------------------------------------------||
    B|------------------------------------------------------------||
    G|---------7-8-7-5----5-7-5-3-2-0-2-0 -----------------||
    D|------------------------------------------------------------||
    A|------------------------------------------------------------||
    E|------------------------------------------------------------||

    kuch bhi karjaonga mein dewana

    E|----------------------------------------------------------------||
    B|----------------------------------------------------------------||
    G|----0---7-----5--7--5--3--2----------5--3--5--3--2--0---||
    D|---------------------------------3-----------------------------||
    A|----------------------------------------------------------------||
    E|----------------------------------------------------------------||

    Jadoo teri nazar.......khusbhu...tera badan

    E|----------------------------------------------------------------||
    B|-----------------------------------------------------------------||
    G|--------3---2--------2--0-----3-2---2-0--0-0--8---10-8-7--||
    D|---0-------------0----------0-----0-----------------------------||
    A|------------------------------------------------------------------||
    E|------------------------------------------------------------------||

    tu haan kar...yaa naa kar.

    E|---------------------------------------------------------------||
    B|---------------------------------------------------------------||
    G|---0-0--8---10-8-7----------------------------------------||
    D|---------------------------------------------------------------||
    A|---------------------------------------------------------------||
    E|---------------------------------------------------------------||

    tu hai..meri kiran...

    ----------------------------------

    10-9-10-9-10-9-10Slide14-12-10-7-9-7-9
    Har ghari badal rahi hai roop zindagi

    Same for Shaam hai kabhi kabhi hai dhoom zindagi

    5-7-10-7
    harpal yahaan

    3-5-8-5
    Ji bhar jiyo

    5-7-10-7
    Jo hai sama

    3-5Slide8-7-5
    kal ho na hoo

    Have fun!!!!

    Regards,
    BaAaLi
     

Share This Page