i have the tabs of guhar album(jal)

Discussion in 'Pakistani Guitar Tabs - Submit or Request' started by rajujee, Oct 3, 2004.

  1. rajujee

    rajujee New Member

    hi guys ...discuss about guhar album jal..its sound tracks are so gud... and offcurse wordings are also...i was finding jal tab tabs but no success..then i made myself.....]
    SOLO PART:

    e ------------------------------------------------------------
    b ------------------------------------------------------------
    g --7-7--9-9-9-10-----7-7--12-12-12-11--7-7-6--7-7-6-------
    d ------------------------------------------------------------
    a ------------------------------------------------------------
    e ------------------------------------------------------------ X 2

    CHORD PART:

    e --7-7--9-9-9-10-----7-7-12-12-12-11--7-7-6--7-7-6--------
    b --7-7--9-9-9-10-----7-7-12-12-12-11--7-7-6--7-7-6--------
    g ------------------------------------------------------------
    d ------------------------------------------------------------
    a ------------------------------------------------------------
    e ------------------------------------------------------------ X 2

    song is "panchi hain urne do..."

    well..i want another tab of this song.... hmm.. in the mid of this song the the solo is play was so ....i want the tab of one of this..well.. other songs of jal i have solo of woh lamhain of this tab..any one wants then tell me ...well.. friends u gave me the another tabs of jal.....
     
  2. DaNy

    DaNy New Member

    hey nice work rajujee
     
  3. qizilbash

    qizilbash New Member

    hmmm gr8 yaar its really nice work keep it up
     
  4. Werdah

    Werdah New Member

    thanks....can't wait to try these.
     
  5. badullah

    badullah Dark Inside

    they sound pretty ok ...., nice work dude
     
  6. zain

    zain New Member

    hey m in da skool's computer lab . really can't wait to try them
     
  7. ansab

    ansab New Member

    nice work man...why dont u paso wohlamhay and bikhra hoon main tabs as well.....thanxx
     
  8. rajujee

    rajujee New Member

    i correct my solo of "panchi hoon"..

    e ------------------------------------------------------------
    b ------------------------------------------------------------
    g --7-7--9-9-10-----7-7--12-12-11--7-7-6--7-7-6------------
    d ------------------------------------------------------------
    a ------------------------------------------------------------
    e ------------------------------------------------------------ X 2

    CHORD PART:

    e --7-7--9-9-10-----7-7-12-12-11--7-7-6--7-7-6-------------
    b --7-7--9-9-10-----7-7-12-12-11--7-7-6--7-7-6-------------
    g ------------------------------------------------------------
    d ------------------------------------------------------------
    a ------------------------------------------------------------
    e ------------------------------------------------------------ X 2

    well guys ...if u feel that any mistake in that solo correct it.....;)
     
  9. ImR@|\|

    ImR@|\| GuiTar MaNiaC

    ... ... Nah chk dis oUT
    7-7-9-10-10--7-7-14-12-9 chk it on last will sound more Correct
     
  10. moadhia

    moadhia New Member

    just to add .... with imrans

    7-7-9-10-10--7-7-14-12-9


    why not do 7-7-5 rather than 7-7-6... how does tat sound... what do u think ??
     
  11. ImR@|\|

    ImR@|\| GuiTar MaNiaC

    yar after 7-7-9-10-10--7-7-14-12-9

    itz comes 7-7-5...well Done Bro.... tHaNX!!
    yara koi Bikhra hoon mein kay guitar tabs figure out nehi ker saka.. i have tried a loT
     
  12. rajujee

    rajujee New Member

    gr8 job both of u imran and moadhia .. but sorry to say it's not perfect yet.... but its cool.. i have the another one of this song.. and it also mine panchi hoo..i made myself
    e --8-7--5--5--5-3--5--5-2-3---------------
    B ------------------------------------------
    G ------------------------------------------

    e ---8-8-7--5--5--5-3--5--5-2-3------------
    B ------------------------------------------
    G ------------------------------------------

    correct it.......;)
     
  13. rajujee

    rajujee New Member

    sorry play on 'G' ......its sound better on 'G'
     
  14. rajujee

    rajujee New Member

    well.... i play ur advice to my guitar but its sound is not so good yaar .... mine is better then u ..i think so.. becoz another freinds like my tab....
     

Share This Page