Humko Sirf Tumse Pyar Hai LEAD Tune Tabs + (AUDIO)

Discussion in 'Hindi Guitar Tabs - Submit or Request' started by shantanukr, Aug 3, 2005.

  1. shantanukr

    shantanukr yEh DiL mAanGe m0rE

    Hi friends, Check out this classic love song " Humko Sirf Tumse Pyar hai " from movie BARSAAT (Old one ). I have given the initial Lead tune of the song. I have also added a Rocking Progression to the song.
    If you want to hear them, the download link is :-

    http://web.music.coolgoose.com/music/song.php?id=195867

    Do Post the Comments !!!!


    *******************************************
    Song Name : Humko sirf tumse pyar hai
    Movie : Barsaat

    Tabbed By : S.h.a.n.t.a.n.u. .K.r.
    shantanukumar@mailcity.com
    ********************************************
    Check out the Lead Tune played in the Song ....

    GUITAR tune played in the song >>>

    E---0--0--0----0--0---------------------
    B------------------------3--1---0--------
    G------------------------------------2----
    D------------------------------------------
    A------------------------------------------
    E------------------------------------------

    Play (Am)

    E------------------------------------------
    B--3--3--3----3--3--1--0---------------
    G----------------------------2-------------
    D-------------------------------3-----------
    A------------------------------------------
    E------------------------------------------

    Play (F)

    E-------------------------------------------
    B------0--1--3--1--0---------------------
    G--2--------------------2------------------
    D-------------------------------------------
    A-------------------------------------------
    E-------------------------------------------



    E-------------------------------------------
    B--------0--1--0---------------------------
    G--0--2-----------2------------------------
    D----------------------3--------------------
    A--------------------------------------------
    E--------------------------------------------

    E--------------------------------------------
    B--------------------------------------------
    G-----0--2--0---2-2-2-2------------------
    D--3-----------------------------------------
    A--------------------------------------------
    E--------------------------------------------


    E---------------------------------------------
    B---------------------------------------------
    G---2--2---4^5--5---4--4--2-------------
    D---------------------------------5-----------
    A---------------------------------------------
    E---------------------------------------------

    I have also added a rocking Guitar Progression
    in the last part of song ... Check Out, it
    goes like this ..

    Am -- G -- F -- E
    F -- E
    F -- E

    ;)
     
    souman_das likes this.
  2. souman_das

    souman_das New Member

    hi shantanukr,
    nice work.
    i appreciate your hard work but the actual scale of the song is Gm and the chords used are Gm,F etc.
    anyway good work and reps to you.

    regards,
    souman
     
  3. shantanukr

    shantanukr yEh DiL mAanGe m0rE

    Thanks Souman. I will check Ur scale....
     
  4. Yoosh

    Yoosh New Member

    hey just a lil' thing..
    how do you play this part:
    E---------------------------------------------
    B---------------------------------------------
    G---2--2---4^5--5---4--4--2-------------
    D---------------------------------5-----------
    A---------------------------------------------
    E---------------------------------------------
    because in the audio it starts strumming and i got a lil' confused
    also i would like to know the strumming pattern for the progression...you can see i'm new to this

    but good work and cud you or have you tabbed the rest of the audio?
     
  5. shantanukr

    shantanukr yEh DiL mAanGe m0rE

    Playing style ..

    Hi there ... That's actually a fast sliding piece ..

    Try to slide when switching from 4 to 5-5 .... And yes it has to be done fast ..

    I hope u will get it ... I will post the audio within short time ... ;)
     
  6. amirsimsibshako

    amirsimsibshako New Member

    hi..good tabs and sounds good...but here r the tabs i found out from another site...its not stuff its copy and paste :D

    Intro.. (to get the whole intro right listen to the
    song very carefully)

    E--5----5-5--5-5-3---------------------
    B------------------------6-5-----------
    G-------------------------------

    E--3----3-3--3-3----------------------
    B----------------------6--5--3---------
    G-------------------------------

    E--------------5--3----------------------
    B--3--5--6-----------6--5--3---------
    G-------------------------------

    E--------------3----------------------
    B--3--5--6--------6--5--3---------
    G--------------------------------5------

    E------------------------5-3---------------
    B-------3--5--3----6----------5-3---------3--
    G--5------------------------------------5---

    this is where the melody starts (i mean whistle melody)

    E---------------------------------
    B--3---6--5--3--------------------- (repeat 3 times)
    G------------------5---------------

    E---------------------------------
    B--5---8--7--5--------------------- (repeat 2 times)
    G------------------7---------------

    end it like

    E---------------------------------
    B--5---8--7--5--------5\3-----------
    G------------------7---------------


    slight pause.. and the song starts..



    E----------------------------5------------
    B--3-3---------3-3--5-6---------------
    G---------2-2-----------------------
    humkosirf tumse pyar hai

    E--3--------------3-3--------------------
    B-------6--5--6----------6--5--3---------
    G--------------------------------------
    hum ko sirf tumse pyar hai

    keh rahi hai dil ki bekhudi
    bus tumhara intezaar hai (same as above)
    (repeat according to song)


    Then is the para

    E---5--6--5---3--5-------5--6--5-------3----------
    B----------------------------------------6--------
    G-----------------------------------------
    dhoondte hai hum tumko dar ba dar

    E---3--5--3---------------3--5---6-8-6---3--5-------
    B---------------6--5--6-----------------------
    G-----------------------------------------
    jaane kab kahan mil oge humko humsafar (repeat)

    kaisi doorian kaisa faasla, aaye hain yahan pe sun
    ke pyaar ki sada (same as above)

    E---5---8----3---6------------3--------------
    B--------------------------6----------6-5-3---
    G-----------------------------------------
    yu to tum se na door honge hum

    then repeat the main line again according to song
    ==============================================================

    Here are the chords progression for the song

    Am......G ( only two of them thru whole song!)
    easy to figure too.
     
  7. Zuluboy

    Zuluboy New Member

    DUDE the tabs are great thanks for posting which site ?

    DUDE the tabs are great thanks for posting which site ?
     

Share This Page