humain itna pyar

Discussion in 'Pakistani Guitar Tabs - Submit or Request' started by i am waleed, Apr 6, 2005.

  1. i am waleed

    i am waleed New Member

    humain itna pyar - jal

    -----x-------x----------x-----x-----
    -----x-------x----------x-----x-----
    -----6-------7----------x-----x-----
    -----x-------x----------7-----9-----
    -----x-------x----------x-----x-----
    -----7-------7----------7-----7-----


    tell me if u think it sounds ok. its the second part. listen to song for pattern.
     
  2. BIG_EVIL

    BIG_EVIL Guitaring Machine

    hahaha..thats it?
     
  3. boxer

    boxer New Member

    tabs have already been sent and here r better then this.....not bad work
     
  4. Quadrophenia

    Quadrophenia New Member

    good attempt ;)
     
  5. Orange Guitar

    Orange Guitar IGT's ALLROUNDER

    not good!!!!
     
  6. i am waleed

    i am waleed New Member

    why dont u like it. i think it sounds ok
     
  7. boxer

    boxer New Member

    here u go..this is one the best...not mine...i have copied from otherzzz
    ----------x-x-------------------
    ----------x-x-------------------
    ----------6-x-------------------
    ----------x-x-------------------
    ----------x-x-------------------
    ----------x-7-------------------


    -----------x--------------------
    -----------x--------------------
    -----------7--------------------
    -----------x--------------------
    -----------x--------------------
    -----------7--------------------


    ----------x-x-------------------
    ----------x-x-------------------
    ----------6-x-------------------
    ----------x-x-------------------
    ----------x-x-------------------
    ----------x-7-------------------

    -----------x--------------------
    -----------x--------------------
    -----------7--------------------
    -----------x--------------------
    -----------x--------------------
    -----------7--------------------

    ----------x-x-------------------
    ----------x-x-------------------
    ----------2-x------------------- play this two times
    ----------x-x-------------------
    ----------x-x-------------------
    ----------x-3-------------------

    ----------x-x-------------------
    ----------x-x-------------------
    ----------4-x------------------- play this two times
    ----------x-x-------------------
    ----------x-x-------------------
    ----------x-5-------------------
     
  8. i am waleed

    i am waleed New Member

    Hey guys try this. and boxer i didnt understand urs

    -----x-------x----------x-----x-----
    -----x-------x----------x-----x-----
    -----6-------7----------2-----4-----
    -----x-------x----------x-----x-----
    -----x-------x----------x-----x-----
    -----7-------7----------3-----3-----
     
  9. i am waleed

    i am waleed New Member

    recording

    hey i recorded it so u can listen and tell me if it sounds good. and im not a good guitarist yet so u can play much better than that. and someone tell me, is there a way that sound wont come when i change chords? thats why i posted the first one but to me this sounds much better.
     

    Attached Files:

  10. ImR@|\|

    ImR@|\| GuiTar MaNiaC

    it sounds ok... Guzara Lyk :p
     
  11. rizwan

    rizwan New Member

    i have a question (funny one for u guys i think)

    but i still didnt find out whts an " x " in it ? and how do u place ur finger while having these " x's " ?
     
  12. Orange Guitar

    Orange Guitar IGT's ALLROUNDER

    there is no sliding sound in the songs....i mean the sound which is produced by strings when the chords change.....
     
  13. ImR@|\|

    ImR@|\| GuiTar MaNiaC

    Hey peepz .. i recorded Humein itna pyar on my cell.. i think it sounds perfect.. do tell me after listenin to it..
     

    Attached Files:

  14. i am waleed

    i am waleed New Member

    imran i dont think urs sounds so good. im sorry. dont be mad.
     
  15. i am waleed

    i am waleed New Member

    orange giutar. the sound doesnt come in the actual song, but im not a very good guitarist and the scratching sound comes when i move barre chords.
     
  16. i am waleed

    i am waleed New Member

    rizwan. x means u gotta mute it. according to my version put ur ring finger on the string on the top. thats the fattest one. ur middle finger on the g string, and then put ur index finger on top of all the strings, but dont press it hard, make sure they dont ring, try it. did u think the recording was nice.
     
  17. faiqrock

    faiqrock XaiQ

    Waleed ur chords are nice man keep it up
     

Share This Page