HUM TUM (saanso ki saanso)

Discussion in 'Hindi Guitar Tabs - Submit or Request' started by TiMmEh03, Sep 14, 2004.

  1. TiMmEh03

    TiMmEh03 Punk From The U.S.A

    Well i finished the rest of the Hum Tum song thanks to kannadaboi. Well hope you like it and please if you have any changes tell me...


    e |---4--6-----2-----4----6-----2-----4-----9999-------4-----------||
    B |----------------------------------------------------------------||
    G |----------------------------------------------------------------||
    D |----------------------------------------------------------------||
    A |----------------------------------------------------------------||
    E |----------------------------------------------------------------||


    E |---4---6----2----4----6------2-----4----9999----4-----6-----7---||
    B |----------------------------------------------------------------||
    G |----------------------------------------------------------------||
    D |----------------------------------------------------------------||
    A |----------------------------------------------------------------||
    E |----------------------------------------------------------------||


    E |---7----------------------6--4--2----6-4--6---7---9-------------||
    B |------9----------7---9------------------------------------------||
    G |---------9-8--9-------------------------------------------------||
    D |----------------------------------------------------------------||
    A |----------------------------------------------------------------||
    E |----------------------------------------------------------------||


    E |---9--9--9---11--11--11--11--9--11--9--7--7--11--9---9---9---9--||
    B |----------------------------------------------------------------||
    G |----------------------------------------------------------------||
    D |----------------------------------------------------------------||
    A |----------------------------------------------------------------||
    E |----------------------------------------------------------------||


    E |--9--9--11--11--11--14--11--9--11---9--7--11--11--9-9-9--7--6--4||
    B |----------------------------------------------------------------||
    G |----------------------------------------------------------------||
    D |----------------------------------------------------------------||
    A |----------------------------------------------------------------||
    E |----------------------------------------------------------------||


    And then repeat the first part a couple more times and there u have it..
     
  2. it aint bad, gud efffort
     
  3. shahmyel

    shahmyel GuRu DaDa

    its really good man
     
  4. TiMmEh03

    TiMmEh03 Punk From The U.S.A

    Thanks for the replies guys
     
  5. invincible2k

    invincible2k New Member

    good tabs but can u post chords of this song if u can then send it
     
  6. TiMmEh03

    TiMmEh03 Punk From The U.S.A

    I still cant read chords... sorry but im gonna start takin lessons soon so hopefully i can learn to read them i've been playing for 2 years without lessons. I was just wondering, how long does it take to learn chords? :rock:
     
  7. invincible2k

    invincible2k New Member

    no problem buddy its very easy to play chords try E Major and A Major for this song
     
  8. skaw

    skaw snooze

    k i tried it but didn't sound so right ... is it jus me ?? ... and one string sounds preti boring too .. i usually make mistakes when i m playin on only 1 string .. so .. well prolly is gud but it doesn't works for me
     
  9. TiMmEh03

    TiMmEh03 Punk From The U.S.A

    I fixed the middle part but i kept the beggining i still dont noe if its rite but it sounds pretty rite to me..well here it is...

    E |--4--6---2---4---6--2--4---9-9-9-9---4------------------------||
    B |----------------------------------------------------------------||
    G |----------------------------------------------------------------||
    D |----------------------------------------------------------------||
    A |----------------------------------------------------------------||
    E |----------------------------------------------------------------||


    E |---4---6---2---4--6---2---4--9-9-9-9---4--6---7---------------||
    B |----------------------------------------------------------------||
    G |----------------------------------------------------------------||
    D |----------------------------------------------------------------||
    A |----------------------------------------------------------------||
    E |----------------------------------------------------------------||


    E |--7----------------------4----6---4---6---7----9----------------||
    B |------9-----------7--9------------------------------------------||
    G |---------9--8--9------------------------------------------------||
    D |----------------------------------------------------------------||
    A |----------------------------------------------------------------||
    E |----------------------------------------------------------------||


    E |--11------11--11--11--11----9---7----7----9---11---9---(pause)-||
    B |----------------------------------------------------------------||
    G |----------------------------------------------------------------||
    D |----------------------------------------------------------------||
    A |----------------------------------------------------------------||
    E |----------------------------------------------------------------||


    E |---7--9---11----11--11---14---11--9--7--------7---9---11---9----||
    B |-------------------------------------------------------------------||
    G |-------------------------------------------------------------------||
    D |-------------------------------------------------------------------||
    A |------------------------------------------------------------------||
    E |-------------------------------------------------------------------||


    E |--7----6----4---||
    B |----------------||
    G |----------------||
    D |----------------||
    A |----------------||
    E |----------------||
    Repeat the first line and then....i dunno wat happens after that
     
  10. TiMmEh03

    TiMmEh03 Punk From The U.S.A

    This is kinda like a revised version try it out and tell me wat u think.....?????
     

Share This Page