Hum jo chalne lage : Jab we met

Discussion in 'Hindi Guitar Tabs - Submit or Request' started by VisOrchestraGrp, Nov 7, 2007.

  1. VisOrchestraGrp

    VisOrchestraGrp New Member

    REQ . BY - ERNAV

    Hum jo chalne lage chalne lage hain ye raaste
    D |--5-5-7-8-10-8--8-10-8-7-5-5--7-8-10-8-7-------------

    Aa ha ha manzil se behtar lagne lage hain ye raaste
    G |----------------------------------------------------5-5---------
    D |--8-7-5--7-8-10--10-8-8--8-10-8-7-5-5--7-8----------7-----

    Hum jo chalne lage chalne lage hain ye raaste
    D |--5-5-7-8-10-8--8-10-8-7-5-5--7-8-10-8-7-------------

    Aa ha ha manzil se behtar lagne lage hain ye raaste
    G |----------------------------------------------------5-5---------
    D |--8-7-5--7-8-10--10-8-8--8-10-8-7-5-5--7-8----------7-----

    Aao kho jaayen hum Ho jaayen hum yu laapata
    B |------------------6-------------------------------------------
    G |--10-8-7--5-7-----7--7-8-10-8--7-8-10-8-------------------

    Hum jo chalne lage chalne lage hain ye raaste
    D |--5-5-7-8-10-8--8-10-8-7-5-5--7-8-10-8-7-------------

    Aa ha ha manzil se behtar lagne lage hain ye raaste
    G |----------------------------------------------------5-7-5---------
    D |--8-7-5--7-8-10--10-8-8--8-10-8-7-5-5--7-8-------------7-----

    STANZA :-

    Baithe baithe aise kaise koi rasta naya sa milay
    G |----------------------------------------------10-8-7-5---------------
    D |--10-12-10-12-10-12-10-12-13-12-12----------------7-8-10------

    Tumbhi chalo main bhi chaloon honge kum ye tabhi faasle
    G |---------------------------------------------10-8-7-5---------------
    D |--10-12-10-12-10-12-10-12-13-12-12----------------7-8-10------

    HUMMING :-

    D |--12-------13-12-10-8------------------------------------

    Baithe baithe aise kaise koi rasta naya sa milay
    G |----------------------------------------------10-8-7-5---------------
    D |--10-12-10-12-10-12-10-12-13-12-12----------------7-8-10------

    Tumbhi chalo main bhi chaloon honge kum ye tabhi faasle
    G |----------------------------------------------10-8-7-5------8----------
    D |--10-12-10-12-10-12-10-12-13-12-12----------------7------10------

    Aao kho jaayen hum Ho jaayen hum yu laapata
    B |------------------6-------------------------------------------
    G |--10-8-7--5-7-----7--7-8-10-8--7-8-10-8-------------------
     
  2. ernav

    ernav Member

    hello.....thanks for this song[:)]

    [​IMG]
     
  3. ernav

    ernav Member

    [:)][:)][:)][:)][:)]
     
  4. namr

    namr New Member

    hello there ! i m a learner and new to this site. another user ernav sent me your name in reply of my post. i m looking for the banjo tune played by salman in hum aapke hain kaun he told me that you have all songs of the film but i am unable to locate it...so i request you if you could send me the tabs or the thread.... i'll be very happy.......... thanks in advance....
     
  5. ernav

    ernav Member

    songs...

    Hello namr....

    how r u?... if u want songs notes of hahk frm Visorchestragrp, thn try it by clicking on his name than click on post thread by.....u'll get all songs poted by this grp.... another idea...__________http://www.indianguitartabs.com/f6/chocolate-lime-juice-hum-aapke-hain-kaun-32074.html
     
  6. ernav

    ernav Member

Share This Page