Hum Bewafa Har Giz Na Thay

Discussion in 'Hindi Guitar Tabs - Submit or Request' started by alirana, Nov 14, 2003.

  1. alirana

    alirana Old Time Guitarist

    hiii
    byeeee
     

    Attached Files:

  2. NuageOutlaw

    NuageOutlaw New Member

    thanx for the tab man :)
     
  3. preezer369

    preezer369 New Member

    i luv this song...especially when shaan sings it...thanks for the tab!!!
    -priya:)
     
  4. alirana

    alirana Old Time Guitarist

    :nw:
    finally got some responses :p
    Mention Not :)
     
  5. esgallindeion

    esgallindeion Minstrel Knight

    e---------------------------------------------------------------------
    B--------------0---------0---1---3--1---------------------------------
    G---4---2---0---------------------------------------------------------
    Hum bewafa hargiz na thhe

    e---------------------------------------------------------------------
    B---1---5--5-5/6-----6-5--1---5--3------------------------------------
    G---------------------------------------------------------------------
    par hum wafa kar na sakay

    e---------------------------------------------------------------------
    B--------------0---------0-0---1---3--1-------------------------------
    G---4---2---0---------------------------------------------------------
    Hum ko mili uski saza

    e---------------------------------------------------------------------
    B---1---5--5-5/6-----6-5--1---5--3------------------------------------
    G---------------------------------------------------------------------
    jo hum khatha kar na sakay


    Haven't heard this song for sometime... but here's a small change I made on ur tab... tell me if its right or wrong.
     
  6. alirana

    alirana Old Time Guitarist

    :think:
    hmmm not badd
     
  7. bacha khan

    bacha khan New Member

    nice song :D
     
  8. aniketpataskar

    aniketpataskar New Member

    @priya
    u dnt like the kishor kumar version?
    well it depends on ur personal choice bt Kishorda cant b compared to Shaan
    His magic can never b recreated
     
  9. ArindamSarkar

    ArindamSarkar New Member

  10. raga2303

    raga2303 New Member

    Arindam - you have a treasure out there.. Got some of my fav number on one site.. god bless u.
     

Share This Page