how do i play this one

Discussion in 'Hindi Guitar Tabs - Submit or Request' started by ankscorek, Nov 16, 2006.

  1. ankscorek

    ankscorek New Member

    e|------------------------------------------------------------------------
    B|------------------------------------------------------0-----------------
    G|------------------2-----1-----------------------------1-----2-----------
    D|2---2-4-----2-----4-----2-----------2---2-4-----2-----------------------
    A|0---0-0-----0-----------------------------------------------0-----------
    E|------------------------------0-----0---0-0-----0-----------------------..

    can some one please give me a verbose explaination as to how do i play this tab?

    if possible can i have chords for this

    this is a tab for happy birthday,,,,ty
     
  2. .:SpY_GaMe:.

    .:SpY_GaMe:. New Member

    d-------0---
    a-------2------

    one finger on 2nd fret of A string then play open d and 2nd fret of A string together u can use finger or a plectrum

    whichever u prefer...
     
  3. ankscorek

    ankscorek New Member

    but it says second fret of d and open a......Moreover where do i start from and do i have to pluck the strings one by one or all at once...pl be verbose as im learning the basics
     
  4. Morbid_Angel

    Morbid_Angel Sid the sloth

    d-------0---
    a-------2------

    Here you pluck em together

    ---1
    -----2

    Here you pluck em seperately, the 1st fret of the higher string 1st.

    And also, SpY has copied the wrong thing. It is 2nd fret of D and open A.
     
  5. ankscorek

    ankscorek New Member

    thanx arnold

    ok here is one from your thread arnold..this is the opening of neele neele amber..how do i do this one especially the G ..do i have to pluck one at a time or all at once...it iwll be nice if i can get the chords...



    E------------------------------------------------------------------------------------
    B------------------------------------------------------------------------------------
    G-----2---3-2--3-2--3-2--3---2-----0-2-0-----0--------------------------------
    D--0--------------------------------------------3----3-2-3-2--0------------------
    A------------------------------------------------------------------------------------
    E------------------------------------------------------------------------------------
     
  6. Morbid_Angel

    Morbid_Angel Sid the sloth

    My thread? Lol I did not post this.

    But, you have pluck them one by one everywhere. Start with open D and then 2nd fret of G and so on...
     
  7. .:SpY_GaMe:.

    .:SpY_GaMe:. New Member

    my error :eek::

    but ankscorek u should have somehow understood the basic rule behind what i explained :annoyed: lol joking :eek:: :eek::
     
  8. ankscorek

    ankscorek New Member

    E------------------------------------------------------------------------------------
    B------------------------------------------------------------------------------------
    G-----2---3-2--3-2--3-2--3---2-----0-2-0-----0--------------------------------
    D--0--------------------------------------------3----3-2-3-2--0------------------
    A------------------------------------------------------------------------------------
    E------------------------------------------------------------------------------------

    but what is this...

    how do i play the G!
     
  9. .:SpY_GaMe:.

    .:SpY_GaMe:. New Member

  10. Morbid_Angel

    Morbid_Angel Sid the sloth

    "Play the 2nd fret of G string"

    Sorry, I should have put string there for you. I meant you should play the 2nd fret of G, ie A.

    Hope you understand now.

    @SpY
    He should have understood what you were tryna point out. Good effort ;)
     
  11. .:SpY_GaMe:.

    .:SpY_GaMe:. New Member

    is that neele neele ambar intro???:think:
     
    Morbid_Angel likes this.
  12. Morbid_Angel

    Morbid_Angel Sid the sloth

    ^
    Who cares? He jus wanted to play it.
     
  13. .:SpY_GaMe:.

    .:SpY_GaMe:. New Member

    I Do !!! :grin:
     
  14. CrYpTiC_angel

    CrYpTiC_angel Rebelle!

    @spy

    read post#5 -_-
     
  15. Morbid_Angel

    Morbid_Angel Sid the sloth

    Hm.. didnt get you.

    But how did he take it from my thread when I have never submitted that song?
     
  16. .:SpY_GaMe:.

    .:SpY_GaMe:. New Member

    :eek::
    MISSED THAT PART
     
  17. ankscorek

    ankscorek New Member

Share This Page