Hossanna From Vinaithaandi Varuvaayaaa By Akhil c nair

Discussion in 'Tamil Guitar Tabs - Submit or Request' started by akhil c nair, Jun 19, 2011.

  1. akhil c nair

    akhil c nair New Member

    Yen idhayam

    g- -------------------------------------------
    b- -------------------------------------------
    e- 910-10-10-10--9-12---10--10--10--10--

    udaithaai norungavey
    g- -------------------------------------------
    b- -------------------------------------------
    e-7-9-10--5-3--5-7--9----------------------

    more tabs at akcreationz follow me..........
    en maruidhayam tharuven nee udaikave

    g- ----------------------------------------
    b- ----------------------------------------
    e- 9--10-10-10---9-12--14-12-----10---


    tharuven nee udaikave

    g- ----------------------------------------
    b- ----------------5----------------------
    e- 9-7---5--3-2-3-----------------------


    Hoooo .... hosanna hosanna

    b- ------------------------------------------------------------------------
    e- 10-12-10---8-8-8--5-3--5-8--8-8-----5-3-5--8-8-8---5-3-3--

    Hoooo .... hosanna hosanna
    b- ------------------------------------------------------------------------
    e- 10-12-10---8-8-8--5-3--5-8--8-8-----5-3-5--8-8-8---5-3-3--


    Andha neram andhi neram kanpaarthu kanhdalagi ponaneram edho aache

    b- -----------------------------------------------------
    e- 710-10-7-555-333-5--7--10--7-7-7-10-----

    Oh vaanam thendi vanhdachu appavin thittuellam kaatrodu poye poche

    b- -------------------------------------------------
    e- 710-10-7-555-333-5-7--10--7-9-7--5---

    Hosanna en vaasal thandi ponaale

    b- --------------------------------------------------
    e- 3-5-3------3-5-3------------------7-----------


    Hosanna verondrum seiyamale

    b- ----------------------------------------------------
    e- 3-5-5------5-7-5------------------3-------------



    nan aadi pogriren
    sookunoorakiren
    aval pona pinbu endhan nejai thedipogiren

    b- -------------------------------------------------
    e- 7-3--7-3--75-75-75-75-75-75-75---10--

    Ho ...sanna ...

    b- --------------------------
    e- 3--5--7-----------------


    Vazhvukum pakkam vandhen
    b- -------------------------
    e - 33-5-7-5-77--------

    savumkum pakkam nindren


    b- -----------------------------
    e- 3-5-7--7-5-7--3----------



    Here is the vdo for tutorial...am just seeing and make a note of the song.......http://www.youtube.com/watch?v=rU6cYkBca0I&feature=related
    -
     
  2. Super-Admin

    Super-Admin Administrator Staff Member

    One of the most Romantic movies I've ever watched, and what a beautiful song !!

    Cheers :)
     

Share This Page