Hindi songs notes & tabs of old hindi romantic songs

Discussion in 'Hindi Guitar Tabs - Submit or Request' started by Rik, Oct 17, 2007.

  1. Rik

    Rik New Member

    Hi, this is rik here, just got into strumming. I am great fan of old hindi romantic songs. Pl. send me complete notes/tabs of neele neele ambar pe chand jab aaye. & aajeeb dastan hai yehan kahan shru kahan khatam. I want to play it for my wife.

    thnks
    tik
     
  2. fishtank

    fishtank New Member

    tabs of song

    have you tried searching in the forum
    all the tabs are already posted
     
  3. Tukai

    Tukai New Member

    N e 1 havin da chords 4 saawaria. Needed urgently..
     
  4. prima

    prima New Member

    Ajeeb Daastan Hai Yeh

    Ajeeb Daastan Hai Yeh

    --------------------------------------------------------------------------------
    INTRO....
    E------------4----------------------------4-----4----4-----4----4------------
    B---------5-------7--5-----------------5--------5----5-----5----5------------
    G--4--6------------------6---5--4--6------------4----4-----4----4------------
    D----------------------------------------------------------------------------
    b c# e g# f# e c# c b c# e g# bg#e bg#e bg#e bg#e


    E------------4------------------------4--7------7----7-----7----7------------
    B---------5-------7--5-------------5------------7----7-----7----7------------
    G--4--6------------------6---5--4---------------6----6-----6----6------------
    D---------------------------------------------------------------------------
    b c# e g# f# e c# c b e g# b bg#e bg#e bg#e bg#e

    --------------------------------------------------------------------------------
    SOME OTHER INSTRUMENT for few second and then this

    E--4--7------------0---2---4--7---4--7------------0---4--2------------------
    B--------0--0---2-----------------------0--0---2----------------------------
    G---------------------------------------------------------------------------
    D---------------------------------------------------------------------------
    g# b b b c# e f# g# b g# b b b c# e g# f#

    --------------------------------------------------------------------------------

    E----9-7---9---7----------------------9--7----9---7-------------------------
    B------------------9--7--------9---------------------9---7---------7--------
    G--------------------------9-----------------------------------9------------
    D---------------------------------------------------------------------------
    c# b c# b g# f# e g# c# b c# b g# f# e f#
    A jee b daa s tan hai yeh ka haan shu ru ka haan kha tam


    E------------------------------------------9---7--9----7--------------------
    B----9---7---9---7----------------------------------------9--7--------------
    G--------------------9----8---6--8-------------------------------6---9------
    D---------------------------------------------------------------------------
    g# f# g# f# e d# c# d# c# b c# b g# f# c# e
    yeh man zi len hain ka un si na woh sama jh sa ke na hum
    --------------------------------------------------------------------------------

    E------------------------------------------9---7--9--7---5---5--9---7-------
    B-------7--9--10--9--10--7---10---------------------------------------------
    G---8-----------------------------------------------------------------------
    D---------------------------------------------------------------------------
    e f# g# a g# a f# a c# b c# b a a c# b
    Yeh ro sh ni ke saa th kyon dhu an u tha chi ra g se


    E---11--11---9--11--9--7--5----7-----------7--7---9--7----------------------
    B-------------------------------------------------------9----7--5------5----
    G------------------------------------------------------------------6--------
    D---------------------------------------------------------------------------
    d# d# c# d# c# b a b b b c# b g# f# e c# e
    Yeh Khwa b de kh ti hoon main ki jug pa ri hoon kh wa b se
    --------------------------------------------------------------------------------

    E----4------4----4---4------4----4------------------------------------------
    B----5------5----5---5------5----5------------------------------------------
    G----4------4----4---4------4----4------------------------------------------
    D---------------------------------------------------------------------------
    bg#e bg#e bg#e bg#e bg#e bg#e

    --------------------------------


    AJEEB DASATAN HAI YE,

    E:77---9--7---------------
    B:-----------9---7------9--
    G:-------------------9------

    KAHAN SHURU KAHAN KHATAM,

    E:77---9--7---------------
    B:-----------9---7------7--
    G:-------------------9------

    YE MANZILEN HAI KAUNSI,

    E:----------------------------
    B:77-----9--7---------------
    G:-------------9-8-9-8------

    NA WO SAMAJH SAKE NA HUM.

    E:77---9--7---------------
    B:-----------9---7---------
    G:-------------------99----



    MUBARAKE TUMHE KE TUM,

    E:---------------------------
    B:----7-9--7-9--7-9------
    G:99-----------------------

    KISIKE NOOR HO GAYE,

    E:77---9-7-----9-7------
    B:-----------99-----------
    G:-------------------------

    KISIKE ITNE PAAS HO,

    E:11-11--9-9----7---------
    B:-------------------9--99--
    G:----------------------------

    KI SABSE DOOR HO GAYE.

    E:-----------------------------
    B:9-7--9-7-------------------
    G:------------99--8-9--------
     
  5. prima

    prima New Member

    Neele Neele Ambar Par [by Kishore Kumar,film-kalakar]

    Tip : Play with a soft pick..like Fender 100-Shell/150-Confetti.If u have a Padel[Zoom-505/Korg-AX 1500G/GT-6 etc.],mix the sound like:

    Dist:Acoustic
    Gain:25
    Wah:No
    Pitch:Your Choice
    Mod:Chorus
    Rev:Hall
    Delay:(little)echo

    Lead - 1[Starting-Intro]

    e---------------------------------------------------------------------------
    B---------------------------------------------------------------------------
    G-----2---3-2--3-2--3-2--3-2-----0-2-0-----0--------------------------------
    D--0-------------------------------------3---3-----2-3-2--------------------
    A---------------------------------------------------------------------------
    E-----------------------------------------------------------3/10---10-------

    Lead - 2[In-Between's-1]

    e-------------------------
    B-5-6-5-------5-----------
    G------7---5-7------------
    D-------------------------
    A-------------------------
    E-------------------------

    Lead - 3[In-Between's-2]

    e-------------------------
    B--0h6-5-5h6p5\3----------
    G-------------------------
    D-------------------------
    A-------------------------
    E-------------------------

    Lead - 4[In-Between's-3]

    e-------------------------
    B-------5h6h8--6-5vvvvv---
    G--5-7--------------------
    D-------------------------
    A-------------------------
    E-------------------------

    Lead - 5[In-Between's-4]

    e----------8-8h10-10-10-10---
    B------8-10------------------
    G--9-10----------------------
    D----------------------------
    A----------------------------
    E----------------------------

    Lead - 6[In-Between's-5]

    e----------8-10--10/12--12-12-12----
    B------8-10-------------------------
    G--9-10-----------------------------
    D-----------------------------------
    A-----------------------------------
    E-----------------------------------

    Lead - 7[In-Between's-6]

    e-----------------------------
    B-----------------------------
    G-----------------------------
    D--10---9-10-9-10-9-10--9vv---
    A-----------------------------
    E-----------------------------

    Lead - 8

    e---------------------------------------------------------------------------
    B--------5h8--6-5---------5h8--6-5-------------------6-5-------5------------
    G-7\3---7--------5--7-7--7--------5--7-7------7--7-7----5--5-5---7----------
    D-7\3--7----------------7---------------------------------------------------
    A---------------------------------------------------------------------------
    E---------------------------------------------------------------------------

    e--------------------
    B--------------------
    G----5---------------
    D--7--8-7-5---------- [Play this part fast]
    A----------8-7-8-5---
    E--------------------

    Lead - 9[Fill-1]

    e-----------------------------
    B-----------------------------
    G--9-10-9-7--7-9--------------
    D----------10-----------------
    A-----------------------------
    E-----------------------------

    Lead - 10[Fill-2]

    e-----------------------------
    B-----------------------------
    G--7-9-7-9-7-9-7-------------- [like: la lala lalalala]
    D-----------------------------
    A-----------------------------
    E-----------------------------


    The song starts here...slowly
    N.C.
    Neele neele ambar par [Lead - 2]
    N.C.
    chaand jab aaye [Lead - 3]
    N.C.
    pyaar barasaae [Lead - 4]
    Dm
    hamako tarasaaye
    N.C.
    Aisaa koii saathii ho [Lead - 5]
    N.C.
    aisaa koii premii ho [Lead - 6]
    N.C.
    pyaas dil kii [Lead - 7]
    Dm
    bujhaa jaae

    Intro : [Lead - 8]

    The song starts here...with usual pace
    Dm C [or play lead-9] {Note:Actually you should play the lead}
    Neele neele ambar par
    Dm [or play lead-10]
    chaand jab aaye
    Dm C [or play lead-9]
    pyaar barasaae
    Dm [or play lead-10]
    hamako tarasaaye
    Dm
    Aisaa koii saathii ho
    C
    aisaa koii premii ho
    Bb A Dm
    pyaas dil kii bujhaa jaae

    Dm C [or play lead-9]
    Neele neele ambar par
    Dm [or play lead-10]
    chaand jab aaye
    Dm C [or play lead-9]
    pyaar barasaae
    Dm [or play lead-10]
    hamako tarasaaye

    Intro : {The Guitar Part,u r waiting for!!These parts are very fast}

    Lead - 11

    e---------------------------------------------------------------------------
    B--------------------------------------------------------------5--5-6-5vv---
    G----------------------------------4-5--5-5-5-5-5-5-7-5-5---5-7--7----------
    D-------5-7--7-7-7-7-7-7-8-7-7----7-----------------------------------------
    A--5-7-8--------------------------------------------------------------------
    E---------------------------------------------------------------------------

    e------------5-5-5--3-3-3--1-1-1------
    B-----5------6-6-6--5-5-5--3-3-3---2--
    G--5-7-7vv---7-7-7--5-5-5--3-3-3---2--
    D----------------------------------2--
    A-------------------------------------
    E-------------------------------------

    [Play this part below..as fast as possible]

    e-------------------------------
    B-------------------------------
    G--2-3-2--0-2-0--0--------------
    D---------------3-3--2-3-2--0---
    A-------------------------------
    E-------------------------------

    Note:
    ====
    You may also play the tripple notes parts as below :[sounds exactly pure!!]
    Play with Up-Down contineous strokes to make it like fast strumming.
    e--------------------------
    B--6-6-6--5-5-5------------
    G---------------7-7-7--5vv-
    D--------------------------
    A--------------------------
    E--------------------------

    In fact each note of the lead-11 part should be played as Up-Down contineous strokes.

    [Now the intro violin part]

    Lead - 12

    e------------------------7-8-7-5-------------------
    B-------5---------------8--------8-6-5-6-6/10vv----
    G---7--7-7----7-6-5vv--5---------------------------
    D--7-------7-7-------------------------------------
    A--------------------------------------------------
    E--------------------------------------------------


    Dm
    Ho, uunche uunche parvat
    C
    jab chuumate hai ambar ko

    Bb
    pyaasaa pyaasaa ambar
    Gm Bb Dm A Dm
    jab chuumataa hai saagar ko [2x]

    Dm C [or play lead-9]
    Pyaar se kasane ko
    Dm [or play lead-10]
    baahon men basane ko
    Dm C [or play lead-9]
    dil meraa lalachaaye
    Dm [or play lead-10]
    koI to aa jaaye
    aisaa koI saathii ho
    aisaa koI premii ho
    pyaas dil kii bujhaa jaae
    Neele neele ...

    Intro : [Comes the second stormy part!!]

    Lead -13

    e ----------------------------------------------------------6--6---
    B ----------------------------------------------------------6--6---
    G ----------------------4-5--4-5-4--4----------------------7--7---
    D --7-7-7-7-7-7-7-7-7--7-----------7-7--5-7-5--4-5-4-----8--8---
    A -----------------------------------------------------7/8--8--8---
    E ----------------------------------------------------------6--6---

    e-------------
    B-------------
    G-------------
    D-------------
    A-----5/17---- [Play these slides while strumming each fret in a contineous
    E-5/15-------- Up-Down series of strokes]

    Intro : then Play Dm twice [Each vigorous Up-Down Strokes..best..listen to the song]

    Intro : Lead -12

    The rest goes in the same pattern [Thank God !!].In the next intro part play the Lead -11 & Lead-12 part...but leaving the first 4 notes from Lead-11.
     
  6. prima

    prima New Member

    STARTING...

    E---------------------------------------------------------------------------
    B---------------------------------------------------------------------------
    G------2-------3--2--3--2--3--2--3--2-------0-2-0----0---------------0------
    D--0-----------------------------------------------3----3--2--0------2------
    A----------------------------------------------------------------0---0------
    E---------------------------------------------------------------------------
    --------------------------------------------------------------------------------

    E------1---5--3----3--5-3-------------------3----1-3-1----------------------
    B--3-----------------------5--------------5------------3--------------------
    G------------------------------------5--------------------------------------
    D---------------------------------------------------------------------------
    A---------------------------------------------------------------------------
    E---------------------------------------------------------------------------
    neele neele ambar par, chaand jab aaye

    E------1---5--3--------------------3---1------------------------------------
    B--3--------------5------------5-----------3--------------------------------
    G-------------------------5-------------------------------------------------
    D---------------------------------------------------------------------------
    A---------------------------------------------------------------------------
    E---------------------------------------------------------------------------
    pyaar barasaae, hamako tarasaaye

    E----------------1----10---10-10------10--------10----8---8--8-8-8----------
    B---3------3------------------------------10--------------------------------
    G------2--------------------------------------------------------------------
    D---------------------------------------------------------------------------
    A---------------------------------------------------------------------------
    E---------------------------------------------------------------------------
    aisaa koii saathii ho aisaa koii premii ho


    E------5--8---6---6---6--8-6-5----------------------------------------------
    B--6------------------------------------------------------------------------
    pyaas dil kii bujhaa jaae
    --------------------------------------------------------------------------------

    E------1---5--3----3--5-3-------------------3-------------------------------
    B--3-----------------------5--------------5------5-6-8-6--------------------
    G------------------------------------5-------------------7------------------
    D---------------------------------------------------------------------------
    neele neele ambar par, chaand jab a.aye


    E---------5--3--------------------3-----------------------------------------
    B-----5-----------5------------5-----5-6/8----------------------------------
    G--7-----------------------5----------------7-------------------------------
    D---------------------------------------------------------------------------
    pyaar barasaae, hamako tarasaaye

    E------------5---10--10-10-10------------------10---8---8--8-8-8------------
    B------------------------------------------10-------------------------------
    G--7-----7------------------------------10----------------------------------
    D------7---------------------------------------------------
    A---------------------------------------------------------
    E--------------------------------------------------
    aisaa koI saathii ho aisaa koI premii ho


    E------5--8---6---6---6--8-6-5----------------------------------------------
    B--6------------------------------------------------------------------------
    G---------------------------------------------------------------------------
    pyaas dil kii bujhaa jaae
    --------------------------------------------------------------------------------

    The MUSIC IN BETWEEN

    E---------------------------------------------------------------------------
    B---------------------------------------------------------------------------
    D--2-4----5---7--8-8/9--9-9-9---9-9-h11-----9------9--11-11-11/12-12-12-12--
    A----------------------------------------13-----10--------------------------
    E-----

    E--------------------------------------------------5-5-5-5---3-3-3-3---1-1-1-1
    B----------------------7--h9-h9-h9----5-h7-h7-h7---6-6-6-6---5-5-5-5---3-3-3-3
    G---7-7-h9------9-7-9--------------7---------------7--------------------------
    D-----------11------------------
    A----------------------------------
    E-------------------------------


    E-------------------------------------
    B------1------------------------------
    G--2-3---3-2-0---0-2-0---------------
    D--------------3-------3-0--------------------
    A----------------------------------------
    E---------------------------


    E--10--10--10---10--10--10--10---------10--12--10---8----------------8------
    B-------------------------------------------------------10----10-10---------
    G---------------------------------------------------------10----------------
    D-------------------
    A--------------------------
    E--------------------------
    ho, uunche uunche parvat jab chuumate hai ambar ko


    E--6---6---6----6--6--6---------6---8----------------------8----------------
    B---------------------------------------9----------9-9-9--------------------
    G------------------------------------------10-10-----------------
    D-----------------
    A--------------
    E---------------
    pyaasaa pyaasaa ambar jab chuumataa hai saagar ko
    --------------------------------------------------------------------------------

    E---------------------------------------------------------------------------
    B--------10--8-8-10-8--------------------8----6-6--8-6----------------------
    G-----10---------------999------------9-----------------7-7-7---------------
    D--12----------------------------10-----------------------------------------
    A---------------------------------------------------------------------------
    E---------------------------------------------------------------------------
    pyaar se kasane ko baaho.n me.n basane ko

    E---------------------------------------------------------------------------
    B----------10--8-10--8-------------------8--6--8-6--------------------------
    G-----10---------------9--------------9------------7------------------------
    A---------------------------------------------------------------------------
    D--12------------------------------10---------------------------------------
    E---------------------------------------------------------------------------
    dil meraa lalachaaye koI to aa jaaye
    --------------------------------------------------------------------------------

    E------------5---10--10-10-10------------------10---8---8--8-8-8------------
    B------------------------------------------10-------------------------------
    G--7-----7------------------------------10----------------------------------
    D------7--------------------------------------------------------------------
    A---------------------------------------------------------------------------
    E---------------------------------------------------------------------------
    aisaa koI saathii ho aisaa koI premii ho

    E------5--8---6---6---6--8-6-5----------------------------------------------
    B--6------------------------------------------------------------------------
    E---------------------------------------------------------------------------
    A---------------------------------------------------------------------------
    pyaas dil kii bujhaa jaae

    Neele Neele ambar per
    SAME AS ABOVE

    --------------------------------------------------------------------------------
    The MUSIC IN BETWEEN

    E-------
    B----------
    G---2--2--2---2-2-2-2-2-2-2-2-2-2-2-2-2-2-h3-h4-h5-2------------------------
    D---0--2--0------------------------------------------2-h3-h4-h5-2-------
    A-----
    E---

    E-------------------------------------------------------------------0-------
    B------1-1-3-1----1-------------------------------------------------0-------
    G--2-3----------3---3--2--3--2--0--2--0-----0-----------------------0-------
    D----------------------------------------3-----3--2--3--2--0--2--0--2-------
    A-------------------------------------------------------------------0-----
    E-----


    E-----
    B-----
    G------------------------------------------0-0-0-0-2-2-2-2-3-3-3-3---
    D------------------0-0-0-0-2-2-2-2-3-3-3-3-----
    A--1-1-1-1-3-3-3-3-----------------------
    E-

    E-----------------------------------------------------1-1-1-1-3-3-3-3--3--3-
    B------------------------------------1-1-1-1-3-3-3-3-------------------4--4-
    G-----------0-0-0-0-2-2-2-2-3-3-3-3------------------------------------5--5-
    D--3-3-3-3--------
    A--
    E--
     
  7. raj_24_lko

    raj_24_lko New Member

    NEELE NEELE AMBAR PAR – KALAAKAR
    Dm C Dm
    Neele neele ambar par, chaand jab aaye
    Dm C Dm
    pyaar barasaae, hamako tarasaaye
    Dm
    Aisaa koii saathii ho
    C
    aisaa koii premii ho
    Bb Dm/A
    pyaas dil kii bujhaa jaae
    Dm C Dm
    Neele neele ambar par, chaand jab aaye
    Dm C Dm
    pyaar barasaae, hamako tarasaaye
    [Main tempo]
    Dm C
    Ho, uunche uunche parvat, jab chuumate hai ambar ko
    Bb Gm Dm A
    pyaasaa pyaasaa ambar, jab chuumataa hai saagar ko [2x]
     
  8. raj_24_lko

    raj_24_lko New Member

    NEELE NEELE AMBAR PAR – KALAAKAR
    Dm C Dm
    Neele neele ambar par, chaand jab aaye
    Dm C Dm
    pyaar barasaae, hamako tarasaaye
    Dm
    Aisaa koii saathii ho
    C
    aisaa koii premii ho
    Bb Dm/A
    pyaas dil kii bujhaa jaae
    Dm C Dm
    Neele neele ambar par, chaand jab aaye
    Dm C Dm
    pyaar barasaae, hamako tarasaaye
    [Main tempo]
    Dm C
    Ho, uunche uunche parvat, jab chuumate hai ambar ko
    Bb Gm Dm A
    pyaasaa pyaasaa ambar, jab chuumataa hai saagar ko [2x]
     
  9. tika0614

    tika0614 New Member

    thank you so much, i love old music even tho im just a teen, and its awesome for me to play these songs
     
  10. djbrat

    djbrat New Member

    superbbbbbbbbbbbbb
     
  11. Mickkk

    Mickkk New Member

    can any1 plse tell me how can i read tabs lyk ...


    e---------------------------------------------------------------------------
    B---------------------------------------------------------------------------
    G-----2---3-2--3-2--3-2--3-2-----0-2-0-----0--------------------------------
    D--0-------------------------------------3---3-----2-3-2--------------------
    A---------------------------------------------------------------------------
    E-----------------------------------------------------------3/10---10-------
     
  12. madhavi

    madhavi New Member

    thank u for the sweet songs.thanks a lot.
     
  13. anjumrm

    anjumrm New Member

    Thanks dear for this code.....
     
  14. tomer

    tomer New Member

    hi everybody, i am new here and i would like to find tabs for sitar, is someone know a good site for it?
    i want to find tabs for songs of ravi shankar, especially "Pancham Se Gara"
    thank you all!
     
  15. wikashbehari

    wikashbehari New Member

    e---------------------------------------------------------------------------
    B---------------------------------------------------------------------------
    G-----2---3-2--3-2--3-2--3-2-----0-2-0-----0--------------------------------
    D--0-------------------------------------3---3-----2-3-2--------------------
    A---------------------------------------------------------------------------
    E-----------------------------------------------------------3/10---10-------


    First the capital E is the top string (6st) of your guitar, so as you notice the ordination in the tab is just reversed.
    The first 0 at the string D (that's your fourth string from below on your guitar); 0 means play that string without pressing any of the frets.
    After that there is a 2 at the G-string (that's your third string from below). 2 means press the seconds fret of that string and than play. Etc etc.

    3/10 can mean anything but in this it means: press fret 3 of string E (top string), strum it (play it) and slide your finger from fret 3 to fret 10 without taking your finger of the string. In short in means 3 slide 10.

    I would advice you to practice with other tabs, this one doesn't sound great. There are a lot here
     

Share This Page