hi everybody....Can you pl help how to play songs with the chords??????

Discussion in 'Introduce Yourself' started by PRAVEENRAAAJ, Nov 19, 2008.

  1. PRAVEENRAAAJ

    PRAVEENRAAAJ New Member

    I started to learn guitar recently,

    I know little how to play with the tabs

    Can you pl help how to play songs with the chords??????

    Eg:

    .....F.........G.........Am..........
    om shanthi shanthi om shanthi
    ....F.......G......Am.........
    en uyirai uyirai nee aenthi
    .....F...........G.........Am...........
     
  2. udaykarri

    udaykarri New Member

    Okay you want to know how to play the chords?
    The fingering is pretty easy for F it is

    E------------------
    B--1---------------
    G--2---------------
    A--3---------------
     
  3. udaykarri

    udaykarri New Member

    /G/

    E---3-----------------
    B--------------------
    G--------------------
    D--------------------
    A---2----------------
    E---3----------------


    /A minor/

    E---------------------
    B---1------------------
    G---2------------------
    D---2------------------
    A---------------------
    E---------------------
     
  4. PRAVEENRAAAJ

    PRAVEENRAAAJ New Member

    thanks uday.............

    My understanding is.........

    For F.....

    E------------------
    B--1---------------
    G--2---------------
    A--3---------------

    shd keep the fingers on 2 string 1st fret......3 string 2 fret........5 string 3 fret and strike these strings.....

    Pl correct me if i am wrong........
     
  5. vicks_virgo

    vicks_virgo New Member

    Dear Praveenraaaj,
    This is the easiest and the best way to play F Maj chord if one cannot play the barre chord.

    e |--1--|-----|-----|-----
    B |--1--|-----|-----|-----
    G |-----|--2--|-----|-----
    D |-----|-----|--3--|-----
    Ax|-----|-----|-----|-----
    Ex|-----|-----|-----|-----

    The above chord tab is self-explanatory. The 1 finger should be kept in such a way that it simultaneously covers the first frets each of the first and the second string. The last two strings A and E should not be played. This chord F Maj has its root on first string E and fourth string D.
     
  6. PRAVEENRAAAJ

    PRAVEENRAAAJ New Member

    Thanx............

    Do i have to play e,B..1 fret, then G ...2 fret, then D.....3 fret..
    or
    Place the fingers in the above position and play all the four strings

    Sorry.........pl clarify...
     
  7. vicks_virgo

    vicks_virgo New Member

    @ PRAVEENRAAAJ: You just need to place the fingers at the said positions and start strumming.
     

Share This Page