Hey.i need chords for KORN-twisted tranistor.and O.C,the program on zcafe-california.

Discussion in 'English Guitar Tabs - Submit or Request' started by vishwa.g, Mar 19, 2006.

  1. vishwa.g

    vishwa.g New Member

    hey i need chords for the song twisted transistor by the band KORN,,n there is this program on zcafe The O.C ..its theme is california,,,its lyrics r like -"california here v cum right back where v started from californiaaa...."'.hey i am a begener n thus have a problem in playin difficult chords..so tell me the the easiest chords to play it....thnaks yaar////
     
  2. UjSen

    UjSen *#!EVIL*!!

    Here there are----


    and gawd how many posts have u got since morning slow down man!!:nw:


    Tuning : 7 String Tuned Low to High (A D G C F a d)

    Vocal: Jonathan Houseman Davis 'Hiv'
    Guitar: James Randal Shaffer 'Munky'
    Bass: Reginald Arvizu 'Fieldy'
    Drums: David Silveria

    Intro:
    Some scratching on the string with the pick, and the first note....
    d|-----------------------------------|
    a|-----------------------------------|
    F|-----------------------------------|
    C|-12~~~~----12~~~~-----12~~~~~~-----| (sometime make the pinch harmonics and bend a little the
    G|-----------------------------------| the note to get he same effects)
    D|-----------------------------------|
    A|-----------------------------------|

    d|---------------------------|
    a|---------------------------|
    F|---------------------------|
    C|---------------------------| (in the background really disorted)
    G|----5-6-5-----5--------5/6-|
    D|---------------------------|
    A|-3~-------3-3---3-3--3-----|

    Verse: (with no vocals)
    d|-------------------------------|
    a|-------------------------------|
    F|-------------------------------|
    C|-------------------------------|
    G|-------5-6-5-----5---------5/6-|
    D|-------------------------------|
    A|-3-3-3-------3-3---3-3-3-3-----|
    . . . . . . . . . .palm mute

    Chorus: (with no vocals)
    d|-------------------------------|
    a|-------------------------------|
    F|-------7/8\7-----7---------7/8-|
    C|-------xxxxx-----x---------xxx-|
    G|-------5/6\5-----5---------5/6-|
    D|-------------------------------|
    A|-3-3-3-------3-3---3-3-3-3-----|
    . . . . . . . . . .palm mute

    d|------------------------------------------------------------------|
    a|------------------------------------------------------------------|
    F|-1515151515151515151515151515151514141414141414141414141414141414-|
    C|-xxxxxxxxxxxxxxxxxxxxxxxxxxxxxxxxxxxxxxxxxxxxxxxxxxxxxxxxxxxxxxxx-|
    G|-1313131313131313131313131313131312121212121212121212121212121212-|
    D|------------------------------------------------------------------|
    A|------------------------------------------------------------------|

    Verse:
    d|-------------------------------|
    a|-------------------------------|
    F|-------------------------------|
    C|-------------------------------|
    G|-------5-6-5-----5---------5/6-|
    D|-------------------------------|
    A|-3-3-3-------3-3---3-3-3-3-----|
    . . . . . . . . . .palm mute

    d|------------------------------------------------------------------|
    a|------------------------------------------------------------------|
    F|-1515151515151515151515151515151514141414141414141414141414141414-|
    C|-xxxxxxxxxxxxxxxxxxxxxxxxxxxxxxxxxxxxxxxxxxxxxxxxxxxxxxxxxxxxxxxx-|
    G|-1313131313131313131313131313131312121212121212121212121212121212-|
    D|------------------------------------------------------------------|
    A|------------------------------------------------------------------|

    Pre-Chorus:
    d|----------------------------------------------------|
    a|----------------------------------------------------|
    F|----------------------------------------------------|
    C|----5~~~~~--------5~~~~---------3~~~~~-------3~~~~~-|
    G|----5~~~~~--------5~~~~---------3~~~~~-------3~~~~~-|
    D|----3~~~~~--------3~~~~~--------1~~~~~-------1-~~~~-|
    A|--3x------------3x------------3x-----------3x-------|

    d|----------------------------------------------------|
    a|----------------------------------------------------|
    F|----------------------------------------------------|
    C|----5~~~~~--------5~~~~---------3~~~~~-------3~~~~~-|
    G|----5~~~~~--------5~~~~---------3~~~~~-------3~~~~~-|
    D|----3~~~~~--------3~~~~~--------1~~~~~-------1-~~~~-|
    A|-33x-----------33x----------------------------------|

    Fill1:
    d|-------------|----------|
    a|-------------|----------|
    F|-------------|----------|
    C|-------------|----------|
    G|-5x-6x-7x-8x-|-5x-6x-7x-|
    D|-5x-6x-7x-8x-|-5x-6x-7x-|
    A|-3x-4x-5x-6x-|-3x-4x-5x-|

    Chorus:
    d|-------------------------------|
    a|-------------------------------|
    F|-------7/8\7-----7---------7/8-|
    C|-------xxxxx-----x---------xxx-|
    G|-------5/6\5-----5---------5/6-|
    D|-------------------------------|
    A|-3-3-3-------3-3---3-3-3-3-----|
    . . . . . . . . . .palm mute

    Verse:
    d|-------------------------------|
    a|-------------------------------|
    F|-------------------------------|
    C|-------------------------------|
    G|-------5-6-5-----5---------5/6-|
    D|-------------------------------|
    A|-3-3-3-------3-3---3-3-3-3-----|
    . . . . . . . . . .palm mute


    Pre-Chorus:
    d|----------------------------------------------------|
    a|----------------------------------------------------|
    F|----------------------------------------------------|
    C|----5~~~~~--------5~~~~---------3~~~~~-------3~~~~~-|
    G|----5~~~~~--------5~~~~---------3~~~~~-------3~~~~~-|
    D|----3~~~~~--------3~~~~~--------1~~~~~-------1-~~~~-|
    A|--3x------------3x------------3x-----------3x-------|

    d|----------------------------------------------------|
    a|----------------------------------------------------|
    F|----------------------------------------------------|
    C|----5~~~~~--------5~~~~---------3~~~~~-------3~~~~~-|
    G|----5~~~~~--------5~~~~---------3~~~~~-------3~~~~~-|
    D|----3~~~~~--------3~~~~~--------1~~~~~-------1-~~~~-|
    A|-33x-----------33x----------------------------------|

    Fill1:
    d|-------------|----------|
    a|-------------|----------|
    F|-------------|----------|
    C|-------------|----------|
    G|-5x-6x-7x-8x-|-5x-6x-7x-|
    D|-5x-6x-7x-8x-|-5x-6x-7x-|
    A|-3x-4x-5x-6x-|-3x-4x-5x-|

    Chorus:
    d|-------------------------------|
    a|-------------------------------|
    F|-------7/8\7-----7---------7/8-|
    C|-------xxxxx-----x---------xxx-|
    G|-------5/6\5-----5---------5/6-|
    D|-------------------------------|
    A|-3-3-3-------3-3---3-3-3-3-----|
    . . . . . . . . . .palm mute

    Bridge1:
    d|----------------------|
    a|----------------------|
    F|----------------------|
    C|-12-12121212-12\11\10-|
    G|-xx-xxxxxxxx-xxxxxxxx-|
    D|-10-10101010-10\ 9\ 8-|
    A|----------------------|

    Fill2:
    d|-------------|
    a|-------------|
    F|-------------|
    C|-------------|
    G|-------------|
    D|-10///12^^---|
    A|-------------|

    Bridge2:
    d|-----------------|
    a|-----------------|
    F|-----------------|
    C|-8~~~~-5~~~~~----|
    G|-8~~~~-5~~~~~-5x-|
    D|-6~~~~-3~~~~~-5x-|
    A|--------------3x-|

    d|-------21-----------21--------------------------|
    a|----------22-----------22---22---21---19---1921-|
    F|-19/21--------19/21-----------21---21---21------|
    C|------------------------------------------------|
    G|------------------------------------------------|
    D|------------------------------------------------|
    A|------------------------------------------------|

    d|-2323232323-212121-232323-212121-232323-2121-23-|
    a|------------------------------------------------|
    F|------------------------------------------------|
    C|------------------------------------------------|
    G|------------------------------------------------|
    D|------------------------------------------------|
    A|------------------------------------------------|

    d|-------21-----------21--------------------------|
    a|----------22-----------22---22---21---19---1921-|
    F|-19/21--------19/21-----------21---21---21------|
    C|------------------------------------------------|
    G|------------------------------------------------|
    D|------------------------------------------------|
    A|------------------------------------------------|

    d|-------------|
    a|-XXXXXXXXXXX-|
    F|-XXXXXXXXXXX-|
    C|-XXXXXXXXXXX-|
    G|-XXXXXXXXXXX-|
    D|-------------|
    A|-------------|

    d|-------21-----------21--------------------------|
    a|----------22-----------22---22---21---19---1921-|
    F|-19/21--------19/21-----------21---21---21------|
    C|------------------------------------------------|
    G|------------------------------------------------|
    D|------------------------------------------------|
    A|------------------------------------------------|

    d|-2323232323-212121-23232321-|
    a|----------------------------|
    F|----------------------------|
    C|----------------------------|
    G|----------------------------|
    D|----------------------------|
    A|----------------------------|

    Chorus:
    d|-------------------------------|
    a|-------------------------------|
    F|-------7/8\7-----7---------7/8-|
    C|-------xxxxx-----x---------xxx-|
    G|-------5/6\5-----5---------5/6-|
    D|-------------------------------|
    A|-3-3-3-------3-3---3-3-3-3-----|
    . . . . . . . . . .palm mute

    Outro:
    d|--------------------|
    a|--------------------|
    F|-------7/8\7-----7x-|
    C|-------xxxxx-----xx-|
    G|-------5/6\5-----5x-|
    D|--------------------|
    A|-3-3-3-------3-3----|
    . . . . . .palm mute


    source

    http://911tabs.com/link/?2264824
     
  3. UjSen

    UjSen *#!EVIL*!!

    Oh and u want to play it wid distortion come to my place>>

    And reps for the above postplz!!!:grin:
     

Share This Page