Here's "KANGNA" The Amazing song Performed by Dr. Zeus (Master Rakesh)

Discussion in 'Hindi Guitar Tabs - Submit or Request' started by s/ash, May 15, 2005.

  1. s/ash

    s/ash New Member

    Here's "KANGNA" The Amazing song Performed by Dr. Zeus (Master Rakesh)

    Song Title :- Kangna
    Performed By:- Dr. Zeus
    Tabbed By:- S/ash :rock:

    If u listen to the intro very carefully u'll come to know that there are 2 guitars that are being played i.e. guitar 1 playing the tabs and guitar 2 playing the chords.... But will do it in such a way on a single guitar that it sounds absolutely similar .... So let's begin to rock ....

    The chords used Are

    D --------- (xx0232)
    Bm -------- (225432) or Simply (xx0432)
    A --------- (002220)


    Intro :



    E------0--------------------------------
    A------0----0--------0-----------------
    D------0------0--------0--------------
    G------2-----------2-------------------
    B------3--------3--------3-------------
    E------2--------------------------------


    E------2--------------------------------
    A------2----2--------2-----------------
    D------5------5----5----5--------------
    G------4--------4----------4------------
    B------3---------------------------------
    E------2--------------------------------


    E------0--------------------------------
    A------0----0--------0-----------------
    D------2------2---2---2----------------
    G------2--------2--------2--------------
    B------2--------------------------------
    E------0--------------------------------


    E------0-------------0--------------------
    A------0----0--------0----0--------------
    D------0------0------0------0------------
    G------2-------2-----2--------------------
    B------3--------------3-------3-----------
    E------2--------------2-------------------


    STRUMMING STARTS :

    (NOTE:- Understanding the strumming part in this song is very important .... Strumming in this something like this -

    1.The first strum is a downstroke very slowly so that one can listen all the strings ringing seperately and clearly...
    2.Then the pattern is (U-D-U-D). Here U refers to upstroke and D refers to the downstroke now after the firt strum u have to strum the last three strings little fast and with a little pressure so that it rings a bit loudly.
    3.Upstrokes are muted here.
    4. While playing chord Amaj avoid strumming the last string as it sounds awful and will actually disturb the rhythm of the song. So let's start with the chords now.)


    D Bm A Bm D (Here the interval b/w the last two chords is really small)
    2 2 2 1 1 (222 11 <-------- This refers to how many times the chord being played)


    1 1 1 1
    D Bm A D
    Addiyan ton ki paiyan jhanjara laung mare lashkare

    1 1 1 1
    D Bm A D
    Addiyan ton ki paiyan jhanjara laung mare lashkare

    1 1 1
    D Bm A
    Kangna tera ni sanu kare ishaare

    1 1 1
    D Bm A
    Kangna tera ni sanu kare ishaare

    (D Bm A Bm D )
    (2 2 2 1 1 )

    2 2
    D A
    Kangne de wich lage nag satrange nee

    2 2
    Bm D
    Kale kale aashiqan to dil ehe mange nee

    1 1
    D D
    Kangne de wich lage nag satrange nee

    1 1
    D D
    Kale kale aashiqan to dil ehe mange nee


    1 1 1 1
    D Bm A D
    Apne es kagne nu saam ke rakh mutiyaare

    1 1 1 1
    D Bm A D
    Apne es kagne nu saam ke rakh mutiyaare

    1 1 1
    D Bm A
    Kangna tera ni sanu kare ishaare

    1 1 1
    D Bm A
    Kangna tera ni sanu kare ishaare

    (D, Bm, A, D, D, Bm, A, D, A, Bm, D, D, Bm, D,)
    (two times all of'em)

    2 2
    D A
    Goriyan baavan de ute tere bara jachda

    2 2
    Bm D
    Tu eh sikaundi enu eh sanu dasda

    1 1
    D D
    Goriyan baavan de ute tere bara jachda

    1 1
    D D
    Tu eh sikaundi enu eh sanu dasda

    1 1 1 1
    D Bm A D
    Kagna tera sach bolda husan diye sarkaare

    1 1 1 1
    D Bm A D
    Kagna tera sach bolda husan diye sarkaare

    1 1 1
    D Bm A
    Kangna tera ni sanu kare ishaare

    1 1 1
    D Bm A
    Kangna tera ni sanu kare ishaare

    (D Bm A Bm D )
    (2 2 2 1 1 )

    2 2
    D A
    Kangne tere ne hun jaadu jaya paalaya

    2 2
    Bm D
    Bange ne Rakesh nu tan piche ene laalaya

    1 1
    D D
    Kangne tere ne hun jaadu jaya paalaya

    1 1
    D D
    Bange ne Rakesh nu tan piche ene laalaya

    1 1 1 1
    D Bm A D
    Teri aas te betha hun na kaliyan vakt guzaare

    1 1 1 1
    D Bm A D
    Teri aas te betha hun na kaliyan vakt guzaare

    1 1 1
    D Bm A
    Kangna tera ni sanu kare ishaare

    1 1 1
    D Bm A
    Kangna tera ni sanu kare ishaare

    1 1 1
    D Bm A
    Kangna tera ni sanu kare ishaare

    1 1 1
    D Bm A
    Kangna tera ni sanu kare ishaare


    AND THEN THE OUTRO (Here Same as intro):


    E------0--------------------------------
    A------0----0--------0-----------------
    D------0------0--------0--------------
    G------2-----------2-------------------
    B------3--------3--------3-------------
    E------2--------------------------------


    E------2--------------------------------
    A------2----2--------2-----------------
    D------5------5----5----5--------------
    G------4--------4----------4------------
    B------3---------------------------------
    E------2--------------------------------


    E------0--------------------------------
    A------0----0--------0-----------------
    D------2------2---2---2----------------
    G------2--------2--------2--------------
    B------2--------------------------------
    E------0--------------------------------


    E------0-------------0--------------------
    A------0----0--------0----0--------------
    D------0------0------0------0------------
    G------2-------2-----2--------------------
    B------3--------------3-------3-----------
    E------2--------------2-------------------


    Suggestions Are welcome

    ----------------------------------
    Play Safe
    (S/ash)
     
  2. zankar

    zankar New Member

    looks great......i will try later....keep it mate

    cheers
     
  3. zankar

    zankar New Member

    looks great......i will try it later....keep it up mate

    cheers
     
  4. vinyl

    vinyl Watch this space

    try these chords

    Am (002210), C (032010), G (320033), Em (022000)

    I don't think there are two guitars... It sounds more like the chord is being strummed slowly so you can hear each string, then they're palm muted and then the same chord is strummed again or something like that. I'll listen to it properly later.
     
  5. vinyl

    vinyl Watch this space

    correction... it's Dm-Am-G-Am-Dm
     
  6. surmayee

    surmayee New Member

    I believe the unplugged version is in minor 7th chords. They follow alomost the same pattern as Abm7, Dbm7, Ebm7, Dbm7, Abm7 etc..
     
  7. d_minor

    d_minor New Member

    You Rock!!!


    Just tried your chords dude!! you rock!!
    These just fit in like a perfect match

    thanks a lot... i have been looking for these chords since the time i've heard the song!!

    Keep smiling!
     
  8. faiqgiant

    faiqgiant .: Innocent :.

    ya man i agree wid dem u rock
     
  9. faiqgiant

    faiqgiant .: Innocent :.

    superb man i just tried da whole song a perfect match
     
  10. twister

    twister New Member

    hey can ne1 explain to me what does D U D U.... as in strumming indicates....i gotta know that....
     
  11. sigmund_q

    sigmund_q New Member

    Man Ur Cool! Thnx A Lot 4 The Tabs. It Cool!!! Kepp Up The Good Work N Njoy Playing, Keep Throwing In Such Good Numbers Dude!!! All The Best N As I Said "njoy"................
     
  12. ambush

    ambush _RASTA_man_

    down- up -down -up
     
  13. mr singh

    mr singh New Member

    look, im new here, im a classical guitarist (grade 5/6).
    im not going 2 lie but i think this tab is somewhat wrong.
    i have worked out my own version of it and will post it soon, once i know how.
    however, with my tab i wont post all the lyrics cos i don hav enuf time 2 do all that crap.
    m,eanwhile i think these r the chords
    446454, 464444, 242222
     
  14. mr singh

    mr singh New Member

  15. billyboy

    billyboy New Member

    thanx 4 the lyric
     

Share This Page