Here without you

Discussion in 'English Guitar Tabs - Submit or Request' started by nmrtaa, Jun 11, 2009.

  1. nmrtaa

    nmrtaa New Member

    hey guys here is my all time favorite " here without you" 3 doors down

    hope u guys like it :)
     

    Attached Files:

  2. pritambabin

    pritambabin New Member

    thnx....will try it.....
     
  3. rpl15

    rpl15 New Member

    Searching for Part time based internet jobs, Online Jobs, Home Based jobs, Work From Home Job.Just visit to get online jobs http://www.thenetjobs.com/
     
  4. kushalkulll

    kushalkulll New Member

    awsm song............
     
  5. sandyssn

    sandyssn New Member

    nice tabs! great work! i love tis song!
     
  6. mystery25

    mystery25 New Member

    thanks for the song, i aint really good with the six-string but will give it a shot.
    got to this website searching for this song.

    p.s: hope the tabs are flawless. in lord we trust.
     
  7. RAJANSEHGAL

    RAJANSEHGAL New Member

    thanks a lot .. but I think there is capo on first/second fret for sure ..

    I will try arpegio too
    thanks
     
  8. utfull

    utfull New Member

    I'm here without you baby
    But you're still on my lonely mind
    I think about you baby
    And I dream about you all the time


    I tried it. i played it. i luv it

    u cn even try a similar fingering style nd a great song

    Away from the sun - 3 doors down

    ---------------------------------------------------------------0-->
    |---1-----1-----1---1-----0h1-------1-----1-----1---1-----0---3---->
    |-----0-----0---------0-------0-------0-----0---------0-----0------>
    |-3-----3-----3---2-----2-------2---------------------------------->
    |---------------------------------3-----3-----3---2-----2---------->
    |------------------------------------------------------------------>

    >---------------------------------------------------------------------|
    >---1-----1-----1---1-----0h1-------3---1---0---3---1---0----1--------|
    >-----0-----0---------0-------0-------0---0---0---0---0----0----------|
    >-3-----3-----3---2-----2-------2-------------------------------------|
    >---------------------------------3-----------------------------------|
    >---------------------------------------------------------------------|
     
  9. kalemati12

    kalemati12 New Member

    Thanks ...
     

Share This Page