Here is the tab for Rock On Solo From Rock On!!

Discussion in 'Hindi Guitar Tabs - Submit or Request' started by spencer, Sep 30, 2008.

  1. spencer

    spencer New Member

    Code:
    #----------------------------------PLEASE NOTE---------------------------------#
    #This file is the author's own work and represents their interpretation of the #
    #song. You may only use this file for private study, scholarship, or research. #
    #------------------------------------------------------------------------------##
    
    
    Gtr I (E A D G B E) - 'Standard Tuning'
    
    
      Gtr I
    |----------------------------------|
    |----------------------------------|
    |----------------------------------|
    |----------------------------------|
    |-----------------3-3-3p2----------|
    |-2-3-5---5-5-5-5---------5-3-5----|
    
    
    |----------------------------------|
    |----------------------------------|
    |----------------------------------|
    |-----5-7p5---5-7p5---5-7p5--------|
    |-3s7-------7-------7-------7S3----|
    |----------------------------------|
    
    
    |----------------------------------|
    |----------------------------------|
    |----------------------------------|
    |-----5-7p5---5-7p5---5-7p5--------|
    |-5s7-------7-------7-------7S3----|
    |----------------------------------|
    
    
    |----------------------------------------------------|
    |----------------------------------------------------|
    |-------------5---------------------5----------------|
    |-------5-5-7---7-5---7-5-5h7-----5---7p5---5-7------|
    |-5s==7-------------7---------7-----------7----------|
    |----------------------------------------------------|
    |
    |-----5----------------------------------------------|
    |-8b9---8-5---5--------------------------------------|
    |-----------7---8-7-5---5-7-7-7b8r====7p5---5--------|
    |---------------------7-------------------7---7-7----|
    |----------------------------------------------------|
    |----------------------------------------------------|
    
    
    |-----5----------------------------|
    |-8---5-----------8----------------|
    |-7b8---7-5-------7b8-7-5----------|
    |-----------7-5-7---------7-5-7----|
    |----------------------------------|
    |----------------------------------|
    
    
    |--------------------------------------------------|
    |--------------------------------------------------|
    |-7b8r7-7-5---5-7-5---5----------------------------|
    |-----------7-------7---7-5---5--------------------|
    |---------------------------7---7-5---5-7-5---5----|
    |-----------------------------------8-------8------|
    
    
                  ~
    |------------------|
    |------------------|
    |-----5------------|
    |-5S7---7-5-7-4----|
    |------------------|
    |------------------|
    
    You can watch my video at http://in.youtube.com/watch?v=0xm3tePMtDE
    
    
    
    
     
  2. anu.nick

    anu.nick New Member

    it works...
     
  3. sam#3

    sam#3 The Lucifer

    Thnx bro.... Gud wrk...
     
  4. spencer

    spencer New Member

    Thanks Dude!! Rock On!!
     
  5. sydneyc

    sydneyc New Member

    Thanks for the tabs.I was looking for them.
     
  6. mishal153

    mishal153 New Member

Share This Page