here are the original chords of Waqt by E.P

Discussion in 'Pakistani Guitar Tabs - Submit or Request' started by Mohsin shahid, Aug 16, 2005.

  1. Mohsin shahid

    Mohsin shahid New Member

    WAQT BY E.P


    CHORDS voicing USED


    Z(113321) i forgot the name of that chord
    F#(244322)
    G#(466544)
    f(133211)



    Z
    ek ehsaas hai

    F#
    ke soocha na tha

    G#
    waqt dhalta raha

    F
    mein chalta raha




    Z
    andhero mein bhi

    F#
    ek roshni thi

    g#
    us roshni mein

    f
    ghar jalta raha


    Z
    to dil mera

    F#
    roye tu kya


    Z -------------- F# -------- G#

    waqt iradoo ko toray tu kyaaaaaa


    Z
    manzil ko apni

    F#
    paye gay hum

    Z -------------- F#------ G# (figure out the strumming pattern
    waqt ko apna banaye gay hum


    z------------ f# --------g# F
    WOOOOOOHOOOOOHOO

    SAME CHORDS FOR THE REST OF THE SONG



    mOHSIN SHAHID
    waiting for your response ppl
     
    .:SpY_GaMe:. and nadish like this.
  2. Quadrophenia

    Quadrophenia New Member

    F# = 244322
    chord 'Z' = Bbm
     
  3. Mohsin shahid

    Mohsin shahid New Member

    thanks pacman for the correction as i am new to this posting stuff
     
  4. Quadrophenia

    Quadrophenia New Member

    No problem..bro..nice work any which ways.
    heres a version i use, i'm sure u will find it useful.


    eP - Waqt

    Transcribed by Usama Hasan

    Tuning : Drop D [DADGBE]


    Chords

    Cm x35543
    G# x66544 OR 666544
    D# x68886
    Bb x13331
    C5 x355xx
    D#5 111xxx
    Bb5 x133xx
    D#5(2) x688xx
    G5 555xxx
    F5 333xxx
    G#5 666xxx
    A5 777xxx



    INTRO 1 X3
    e---------------------------------------------------------------------------------
    B---------------------------------------------------------------------------------
    G---------------------------------------------------------------------------------
    D-5-5-5-5-5-5-5-5--8-8-8-8-8-8-8-8------------------------------------------------
    A----------------------------------8-8-8-8-8-8-8-8--6-6-6-6-6-8-8-8---------------
    D---------------------------------------------------------------------------------


    INTRO 2
    e---------------------------------------------------------------------------------
    B--------------------------------------3-------6/8-6h8-6~~~~~~/8~~~~~~------------
    G-/8-7-5-3/5-3------5-5/7~--/8-7-5-3h5---3----------------------------------------
    D--------------5/8~------------------------5/8------------------------------------
    A---------------------------------------------------------------------------------
    D---------------------------------------------------------------------------------


    VERSE (Rap 1)..... X2

    This is how the story goes.........

    e------------------------------------1--------------------------------------------
    B----------------------------4---3-------4---3------------------------------------
    G--------------------------1---1---1---1---1--------5---7---5---5---5-------------
    D---5---3---3h5---5---5---------------------------3---3---3---3---3---------------
    A-3---3---3-----3---3-------------------------------------------------------------
    D---------------------------------------------------------------------------------

    e---------------------------------------------------------------------------------
    B---------------------------------------------------------------------------------
    G---3-----------------------------------------------------------------------------
    D-1---1-0~-1-3-1-0----------------------------------------------------------------
    A------------------3--------------------------------------------------------------
    D---------------------------------------------------------------------------------


    VERSE 1 (Zulfi) (Clean)

    Cm G#
    Ik Ehsas Hai, Keh Socha Na Tha

    D# Bb
    Waqt Dhalta Raha, Mein Chalta Raha

    Cm G#
    Anderon Mein Bhi, Ek Roshni Thi

    D# Bb
    Us Roshni Mein, Ghar Jalta Raha


    CHORUS (Mostly Muted....fast repeated strokes...listen to song)

    C5 D#5 Bb5
    To Dil Mera Royay To Kya

    C5 D#5 Bb5
    Waqt Iradon Ko Toray To Kya

    C5 D#5 Bb5
    Manzil Ko Apni Payein Gay Hum

    C5 D#5 Bb5
    Waqt Ko Apna Banayein Gay Hum


    POST CHORUS (Not Muted)

    C5
    Wooo ooooo ooooo ooo

    D#5(2)
    Woooo oooo oooo

    Bb5 F5
    Woooo oooo oooo ooooo

    F5
    Jo Chahun Woh Ho

    C5
    Wooo ooooo ooooo

    D#5(2)
    Woooo oooo oooo

    Bb5 F5
    Woooo oooo oooo



    VERSE (Rap 2).....X2

    Heres A Lil Somethn that you really.....

    e------------------------------------1--------------------------------------------
    B----------------------------4---3-------4---3------------------------------------
    G--------------------------1---1---1---1---1--------5---7---5---5---5-------------
    D---5---3---3h5---5---5---------------------------3---3---3---3---3---------------
    A-3---3---3-----3---3-------------------------------------------------------------
    D---------------------------------------------------------------------------------

    e---------------------------------------------------------------------------------
    B---------------------------------------------------------------------------------
    G---3-----------------------------------------------------------------------------
    D-1---1-0~-1-3-1-0----------------------------------------------------------------
    A------------------3--------------------------------------------------------------
    D---------------------------------------------------------------------------------


    VERSE 2 (Zulfi) (Clean)

    Cm G#
    Girta Raha, Sambhalta Raha

    D# Bb5
    Is Khaamoshi Mein, Mein Marta Raha

    Cm G#
    Neendon Ke, Mein Saayay Talay

    D# Bb5
    Khwabon Ko Tarasta Raha



    CHORUS (Mostly Muted....fast repeated strokes...listen to song)

    C5 D#5 Bb5
    To Dil Mera Royay To Kya

    C5 D#5 Bb5
    Waqt Iradon Ko Toray To Kya

    C5 D#5 Bb5
    Manzil Ko Apni Payein Gay Hum

    C5 D#5 Bb5
    Waqt Ko Apna Banayein Gay Hum

    C5
    Wooo


    ACOUSTIC (Doesnt Seem Right At First Hear But Listen To The Song Closely)

    C5 Bb5 D#5 G5
    C5 Bb5 F5 C5.....


    C5 Bb5
    Iss Dhool Ke Ghubar Se

    D#5 G5
    Nashay May Rahay

    C5 Bb5
    Giray Jin Diyon Pe Parday

    F5 G#5 Bb5
    Jalay Na Bujhay

    C5 Bb5
    Iss Dhool Ke Ghubar Se

    D#5 G5
    Nashay May Rahay

    C5 Bb5
    Giray Jin Diyon Pe Parday

    F5 G#5 Bb5
    Jalay Na Bujhay


    PAN PIPE TRANSCRIBED AS GUITAR X3
    reverse
    bend
    e-------------3/6-----------------------------------------------------------------
    B----6/8-6~--------6-4-6p4-------/11---11--16b13-13-11-13-------------------------
    G-/5-----------------------5-3~-----10--------------------------------------------
    D---------------------------------------------------------------------------------
    A---------------------------------------------------------------------------------
    D---------------------------------------------------------------------------------



    THEN THE GUITAR PLAYS THIS X2

    e---------------------------------------------------------------------------------
    B-4-6/8-6-4p3-4-6/8-6-4p3-4-6/8-6-4p3-4-3p1---------------------------------------
    G-------------------------------------------3-------------------------------------
    D---------------------------------------------------------------------------------
    A---------------------------------------------------------------------------------
    D---------------------------------------------------------------------------------

    C5
    Wooo ooooo ooooo ooo

    D#5(2)
    Woooo oooo oooo

    Bb5 F5
    Woooo oooo oooo ooooo

    F5
    Jo Chahun Woh Ho

    C5
    Wooo ooooo ooooo

    D#5(2)
    Woooo oooo oooo

    Bb5 F5
    Woooo oooo oooo

    A5
    Wooo oooo oooo

    Bb5
    Oooo oooo oooo

    F5 C5
    Oooo oooo oooo oooo

    C5
    Na Chahun Woh Ho

    A5
    Wooo oooo oooo

    Bb5
    Oooo oooo oooo

    F5 C5
    Oooo oooo oooo oooo

    C5
    Na Chahun Woh Ho


    OUTRO

    e---------------------------------------------------------------------------------
    B-3/10-11-------------------------------------------------------------------------
    G---------10~-12-12/14-10-9-10-9-5~~~~/14-12h14-12~~------------------------------
    D---------------------------------------------------------------------------------
    A---------------------------------------------------------------------------------
    D---------------------------------------------------------------------------------

    e---------------------------------------------------------------------------------
    B-3/10-11-----------11/13---------------------------------------------------------
    G---------10~-10-12-------10-9-10-9-5~~~~/14-12h14-12~~~~-12/14~~~~~~~~-----------
    D---------------------------------------------------------------------------------
    A---------------------------------------------------------------------------------
    D---------------------------------------------------------------------------------
     
  5. Ozze

    Ozze New Member

    nice work Quadrophenia
    keep posting
     
  6. Lahori_rocker

    Lahori_rocker Guitar God left IGT

    nice work..............:)
     
  7. nadish

    nadish Active Member

    nice work...... Quad and Mohsin!!!
     
  8. J.J

    J.J The Guitar God

    er...quad wasn't that a copy paste of umerboy's work???
     
  9. Spellbinder

    Spellbinder Crescentarian

    Now that is called a chords
     
  10. nadish

    nadish Active Member

    Which one spellbinder???
     
  11. Quadrophenia

    Quadrophenia New Member

    eP - Waqt

    Transcribed by Usama Hasan

    Tuning : Drop D [DADGBE]


    credits are given to the tabber. tabber is called usama hasan.
     
  12. faizanalvi

    faizanalvi New Member

    hello every one, i'm a beginner guitarist... really beginner... :( can anyone please explain the strumming pattern for this song? i'm really having a hard time figuring it out, 'cause i've acoustic and not really very good with electric sounds yet...
     

Share This Page