Help the newbies this way

Discussion in 'Pakistani Guitar Tabs - Submit or Request' started by Evo Guy 911, Nov 20, 2005.

  1. Evo Guy 911

    Evo Guy 911 Banned

    Hi. I am new in here, and have been simply shocked to see the amount of content at loose in here. Now what i want the big players here to do is to post a kinda tutorial for the newbies like us about chords. You can post the basic chords like E, Em, Eadd9, E7, Esus, etc. This will at first simplify the chords given out for songs, and secondly, it will aslo act as a tutorial. Some of the chords are down here:

    E Minor (Em)

    e:--0------------------------------------------------------
    B:--0------------------------------------------------------
    G:--1------------------------------------------------------1 <
    D:--2------------------------------------------------------3 < These are the recommended
    A:--2------------------------------------------------------2 < fingers to play this chord
    E:--0------------------------------------------------------

    E Major (E)

    e:--0------------------------------------------------------
    B:--0------------------------------------------------------
    G:--0------------------------------------------------------
    D:--2------------------------------------------------------2
    A:--2------------------------------------------------------1
    E:--0------------------------------------------------------

    E Add 9 (Eadd9)

    e:--0------------------------------------------------------
    B:--0------------------------------------------------------
    G:--0------------------------------------------------------
    D:--4------------------------------------------------------3 or 4
    A:--2------------------------------------------------------1
    E:--0------------------------------------------------------

    E 7 (E7)

    e:--0------------------------------------------------------
    B:--0------------------------------------------------------
    G:--1------------------------------------------------------1
    D:--0------------------------------------------------------
    A:--2------------------------------------------------------2
    E:--0------------------------------------------------------

    E Suspended ( E sus)

    e:--0------------------------------------------------------
    B:--0------------------------------------------------------
    G:--2------------------------------------------------------3
    D:--2------------------------------------------------------2
    A:--2------------------------------------------------------1
    E:--0------------------------------------------------------

    A Major (A)

    e:--0------------------------------------------------------
    B:--2------------------------------------------------------3
    G:--2------------------------------------------------------2
    D:--2------------------------------------------------------1
    A:--0------------------------------------------------------
    E:--x------------------------------------------------------ < x means this string is muted.

    A Minor (Am)

    e:--0------------------------------------------------------
    B:--1------------------------------------------------------1
    G:--2------------------------------------------------------3
    D:--2------------------------------------------------------2
    A:--0------------------------------------------------------
    E:--x------------------------------------------------------

    A Suspended 2 (A sus 2)

    e:--0------------------------------------------------------
    B:--0------------------------------------------------------
    G:--2------------------------------------------------------3
    D:--2------------------------------------------------------2
    A:--0------------------------------------------------------
    E:--x------------------------------------------------------

    A Suspended 4 (A sus 4)

    e:--0------------------------------------------------------
    B:--3------------------------------------------------------4
    G:--2------------------------------------------------------3
    D:--2------------------------------------------------------2
    A:--0------------------------------------------------------
    E:--x------------------------------------------------------

    A 7 (A7)

    e:--0------------------------------------------------------
    B:--2------------------------------------------------------3
    G:--0------------------------------------------------------
    D:--2------------------------------------------------------1
    A:--0------------------------------------------------------
    E:--x------------------------------------------------------

    A Minor 7 (A min 7 or Am7)

    e:--0------------------------------------------------------
    B:--1------------------------------------------------------1
    G:--0------------------------------------------------------
    D:--2------------------------------------------------------2
    A:--0------------------------------------------------------
    E:--x------------------------------------------------------

    A Major 7 (A major7)

    e:--0------------------------------------------------------
    B:--2------------------------------------------------------3
    G:--1------------------------------------------------------1
    D:--2------------------------------------------------------2
    A:--0------------------------------------------------------
    E:--x------------------------------------------------------


    so on and so forth. Alright guyz.. I have done some effort, now its ur turn. Look alive
     
  2. har1s

    har1s <b>Untitled</b>

    correction
    Em = 022000 not 022100 (this is E major)
     
  3. nadish

    nadish Active Member

    Yarr EVo 911!!! just download the demo version of Guitar Pro 4.x, u'll find 100's of chords in it.....

    http://www.guitar-pro.com

    Thats easy :)
     
  4. Quadrophenia

    Quadrophenia New Member

    ncie but rong forum
     
  5. Evo Guy 911

    Evo Guy 911 Banned

    thanks for the discouragement guys! :( .... but thanks for the pointers :) ............See u around. Adios
     
  6. .:SpY_GaMe:.

    .:SpY_GaMe:. New Member

    only two words to describe ur work:

    wrong forum
     

Share This Page