Help the Biginner

Discussion in 'Hindi Guitar Tabs - Submit or Request' started by bigb, Jul 26, 2004.

  1. bigb

    bigb New Member

    Hi All Guitar Gurus,

    I am a begineer. I just bought my first Acuostic guitar and about to take the lessons.
    I would greatly appreciate any tips for the biginner. Any recommended reading. Dos and Donts etc.

    Thanks for your time and help!
     
  2. MARS

    MARS Mars Ji...Finally!!!!!

    You can get lot of information in Beginners forum...

    :beer:
     
  3. prash_rocks

    prash_rocks Over the Hills & Far Away

    visit the site http://www.guitarprinciples.com, subscribe to their newsletter and check out the dos and don'ts for the beginners. a very helpful site for players of all levels of expertise.
     
  4. jayanth

    jayanth <.: : Call Quits : :.>

  5. bigb

    bigb New Member

    Thanks a Lot to everyone!!!
     
  6. jayanth

    jayanth <.: : Call Quits : :.>

    YOu welcome...
     
  7. kamiboy

    kamiboy New Member

    --------------------------------------------------------------------------------

    This is for all those who cannot understand guitar tabs at all. Its really very simple, at least much simpler than staff notations. But tabs usually don't give u a good idea about timing. In any case it is the most convenient way of sharing on the net.

    1. First of all, there are 6 lines, each representing a string on your guitar.

    E--------------------------------------- (1st string)
    B--------------------------------------- (2nd string)
    G--------------------------------------- (3rd)
    D--------------------------------------- (4th)
    A--------------------------------------- (5th string)
    E--------------------------------------- (6th/last string)

    2. The numbers represent the frest on your fretboard.

    E-------------------0------------------------------1--
    B----------------0----0-------------------------1----
    G-------------0----------0--------------------1------
    D----------0----------------0--------------1---------
    A-------0----------------------0--------1------------
    E---0----------------------------0---1---------------

    This tab tells you to pluck open strings from the last to the first and then return to the last after which you play the first fret on each string in the order 6 st string - 5th - 4th - 3rd - 2nd - 1st.

    E----------------0--1--------------------- (1st string)
    B-------------1--------3------------------ (2nd string)
    G----------2--------------2--------------- (3rd)
    D-------2--------------------0------------ (4th)
    A----0----------------------------------- (5th string)
    E-0-------------------------------------- (6th/last string)

    This tab tells you to play 6th and 5th string open and then the second fret on 4th and 3rd strings and open 1st string. Then you return playing the 1st fret on 1st string and so on as shown.



    I think thats enough for tonight. I'll continue tommorow with different symbols and other stuff.
    __________________
    --------------------------------------------------------------------------------

    This is for all those who cannot understand guitar tabs at all. Its really very simple, at least much simpler than staff notations. But tabs usually don't give u a good idea about timing. In any case it is the most convenient way of sharing on the net.

    1. First of all, there are 6 lines, each representing a string on your guitar.

    E--------------------------------------- (1st string)
    B--------------------------------------- (2nd string)
    G--------------------------------------- (3rd)
    D--------------------------------------- (4th)
    A--------------------------------------- (5th string)
    E--------------------------------------- (6th/last string)

    2. The numbers represent the frest on your fretboard.

    E-------------------0------------------------------1--
    B----------------0----0-------------------------1----
    G-------------0----------0--------------------1------
    D----------0----------------0--------------1---------
    A-------0----------------------0--------1------------
    E---0----------------------------0---1---------------

    This tab tells you to pluck open strings from the last to the first and then return to the last after which you play the first fret on each string in the order 6 st string - 5th - 4th - 3rd - 2nd - 1st.

    E----------------0--1--------------------- (1st string)
    B-------------1--------3------------------ (2nd string)
    G----------2--------------2--------------- (3rd)
    D-------2--------------------0------------ (4th)
    A----0----------------------------------- (5th string)
    E-0-------------------------------------- (6th/last string)

    This tab tells you to play 6th and 5th string open and then the second fret on 4th and 3rd strings and open 1st string. Then you return playing the 1st fret on 1st string and so on as shown.
     
  8. jayanth

    jayanth <.: : Call Quits : :.>

    YOu posted twice??
     
  9. bob-bobby

    bob-bobby Extinct or Banned!

    hey bigb , just keep on coming to this site regularly & prob by browsing itself thru the tabs section , you wud get some good simple tabs which u can start to practise.

    all the best ...

    welcome aboard dude....
     
  10. jayanth

    jayanth <.: : Call Quits : :.>

    Watch out in the Guitar Tutorials section..
     

Share This Page