Hellooo i need oh penne penne tabs and ailesa aile ailesa tabs... Only tabs urgently.

Discussion in 'Tamil Guitar Tabs - Submit or Request' started by King kong, Nov 13, 2013.

  1. King kong

    King kong New Member

    This is very urgent!
     
  2. sathish lion

    sathish lion New Member

    boss intha song la apdi ena iruku ... elarum like pandringa ????
     
  3. King kong

    King kong New Member

    Ellame irukkude bro.. Hahah... Unggekite anthe tabs irukka?
     
  4. sathish lion

    sathish lion New Member

    thala try tiz ...



    Un Kaigal Korthu
    3—5--6 ------5—3-
    Unnodu Poga
    3—5--6 ------5—3-
    En Nenjam Thaan Aenguthe
    3—5--6 ------8—-6----5---3-
    Thinamum Uyir Vaanguthey
    3—5--6 -----6~8—-6----5---3-

    (2 times)
    Play panunga ….. above

    Un Kannam Maelae
    3-----9—9-----7----5
    Mazhai Neerai Pole
    3-----9—9-----7----5
    Mutha Kolam Poda Aasai Alladuthae
    7---5----7-9------10--9----7-5-----5-----7—5--3
    Nee Paesum Paechu
    3-----9—9-----7----5
    Naalthorum Kaettu
    3-----9—9-----7----5
    Enthan Jenmam Theera Aekkam Thalladuthey
    5-------3----5-----7----5---7---5----3----3—5---3---1



    Oh Penne Penne
    3---5----7---5----7-
    En Kanne Kanne
    4---5----7---5----7-
    Unmai Sonnal Enna?
    5---3---5----7-----5-3---
    Unnai Thanthaal Enna?
    5---3---5----7-----5-3--- ( 2times)


    Aezhu Kadal Thaandi Unakaaga Vanthene
    0---7----7--7----7—7-----5-7-9-7--------5---3--0--
    Unthan Alai Vanthu Kadal Seruthey
    0-----5----77-----9—7---5—7—5-3-1-
    Vennilavai Vetti Mothirangal Seivene
    0---7----7--7----7—7-----5-7-9-7--------5---3--0--
    Athu Unai Sera Oli Veesuthey
    0-5----77-----9—7---5—7—5-3-1-
    Antha Vinmeengalthan
    5-----6---7~9-----7--9
    Unthan Kanmeenile
    7----5----7~9-----7--9
    Vanthu Kudiyerave
    3---5------7-9-7-5
    Konjam Edam Kekuthe
    3---5-------7-7----7-9-7-5
    Idru Un Kaiyile
    5-7--9—10-9--7
    Naan Nøøl Bømmaiye
    4------5---7---9-7
    Oønjal Pølmaaruthey
    5---7---9—10---9--7
    Adi Un Penmaiye
    5---7---9—10---9--7




    by

    sathish lion

    next trying tiz
    Ootha coloaru ribbon
    5--7~9—7—5-5----5—7—

    Unaku yaru appan
    555---7~9---7------55

    Pathisoaldi
    5555-----5


    to be continued .....
     
  5. bujibhuvana

    bujibhuvana New Member

    anybody have penne penne song exact notes ???????????plz post
     
  6. sathish lion

    sathish lion New Member

    wait am watching the movie vc .. itha song la apdi yena irukunratha pakuren ...
     
  7. sathish lion

    sathish lion New Member

Share This Page