Heer Alaap - Junoon

Discussion in 'Hindi Guitar Tabs - Submit or Request' started by vidhansinghai, Jan 3, 2005.

  1. vidhansinghai

    vidhansinghai New Member

    Hi all,

    One of my friends, Amit, was playing this the other day. I just kinda improved and tabbed it.

    Code:
    Song     : Heer Alaap
    Artist   : Junoon
    Tabbed by: Vidhan Singhai ([url]http://www.geocities.com/vidhansinghai[/url])
    
    Part A
    E-------------------------------------------------------------------------------------------------
    B-------------------------------------------------------------------------------------------------
    G--5/7-7-7--5-7-7/12-11-8---5/7-7-7-5-/-4-2-4-5-7-------------------------------------------------
    D-------------------------------------------------------------------------------------------------
    A-------------------------------------------------------------------------------------------------
    E-------------------------------------------------------------------------------------------------
    Repeat 4 times
    
    Part B
    E-------------------------------------------------------------------------------------------------
    B---7--7--7--7--7------7--7--7--7--7-------8--8--8--8--8------8--8--8--8--8-----7--8--7--8--10--8-
    G--7--7--7--7--7-7----7--7--7--7--7-7-----7--7--7--7--7-7----7--7--7--7--7-7----7--7--7--7--9---7-
    D-------------------------------------------------------------------------------------------------
    A-------------------------------------------------------------------------------------------------
    E-------------------------------------------------------------------------------------------------
    Repeat 2 times
    
    Part C
    E-------------------------------------------------------------------------------------------------
    B--5-5-5--7-7-7--8-8-8--7-7-7-5-7---5-5-5--7-7-7--8-8-8--7-7-7-5-7------7-------------------------
    G--7-7-7--7-7-7--7-7-7--7-7-7-7-7---7-7-7--7-7-7--7-7-7--7-7-7-7-7------7-------------------------
    D-------------------------------------------------------------------------------------------------
    A-------------------------------------------------------------------------------------------------
    E-------------------------------------------------------------------------------------------------
    
    E-------------------------------------------------------------------------------------------------
    B--8-7-8-7-8-7------------------------------------------------------------------------------------
    G--7-7-7-7-7-7------------------------------------------------------------------------------------
    D-------------------------------------------------------------------------------------------------
    A-------------------------------------------------------------------------------------------------
    E-------------------------------------------------------------------------------------------------
    
    Repeat from Part A.
    
     

Share This Page