Har kisi ko nahi milta - Jaanbaaz (Intro Tabs + Chords)

Discussion in 'Hindi Guitar Tabs - Submit or Request' started by notty_lad, Jan 25, 2006.

  1. notty_lad

    notty_lad sudo undress

    Movie Name : Jaanbaaz (1986)
    Singer : Manhar, Sadhana Sargam
    Music Director : Kalyanji Anandji
    Lyrics : Indeewar
    Year : 1986
    Producer : Feroz Khan
    Director : Feroz Khan

    Hey pals .. there are many tabs n chords for this song here.. but i'm not totally satisfied wid any of those .. so juz posting wat i Think are da Correct chords n tabs .. The chords by Gunjan_oflove are nearly correct (though his intro tabs are incorrect).. but it needs some correction(acc to me) .. anyway .. enuff said .. here's how i play it .. nJOY..

    INTRO TABS
    e|--------------------------------------------------------------------------------
    B|--------------------------------------------------------------------------------
    G|------------------------1------------------------------------------------------
    D|-----0-2-3--2p3-2-0-2-3----------0-2-3--2p3-2-0-2-0-------------------------
    A|---2---------------------------2---------------------2p3-3-2----------------
    E|--------------------------------------------------------------------------------
    p = pull up

    CHORDS:
    PHEW .. Finally it's done ..

    Man this is First time i've done somethin so detailed .. it was painstaking .. don't i deserve somethin here :p:
     
    subheet, folkpoet80, rizaaj and 2 others like this.
  2. jim4u18

    jim4u18 New Member

    u do man u do deserve some appreciations gr8 job
     
  3. .:SpY_GaMe:.

    .:SpY_GaMe:. New Member

    You must spread some Reputation around before giving it to notty_lad again
     
  4. prog_man_0101

    prog_man_0101 Dain Bramaged

    Great post buddy..... :nw:
    But I still wonder.........HOw cum Potty_Gal has not posted any replies yet??....... ;)
     
  5. sanju_strings

    sanju_strings 50 Pai$e <3V/S<3 50 CeNt$

    reps nai day sakta char 1111 chalega kya ? batta day blck money white tho karoo kiddin:p:
     
  6. amit82cse

    amit82cse Silent observeR

    no prob...reps on your way...
    good post
     
  7. kl12

    kl12 (Ghost Note)

    good chords...reps 4 u if it allows me to ...
     
  8. notty_lad

    notty_lad sudo undress

    Thankies everyone Palz thanx for da reps .. da appreciation .. Hope this adds another song to ur databases :)
     
  9. guitar_lover

    guitar_lover New Member

    NIce Work ! Really nice
     
  10. metal_fan69

    metal_fan69 To Live Is To Die

    hmm....

    good work buddy

    wat's up with the puna meeting?
     
  11. notty_lad

    notty_lad sudo undress

    Thanx guitar lover n metal fan .. pune meetin .. nothin quite planned as yet ..
     
  12. djmistryman

    djmistryman kuch..jaana pehchaana

    Here are the intro tabs where the BASS plays. Please try and let me know.

    PLAY along the song to match them up

    e|--------------------------------------------------------------------------------
    B|--------------------------------------------------------------------------------
    G|--------------------------------------------------------------------------------
    D|-------2-----------------------------------------------------------------------
    A|-----2---0--2--0h2h3p2-2p0----------------------------------------------
    E|--0-----------------------------------------------------------------------------


    h- hammer on
    p = pull up

    Repeat the above



    e|--------------------------------------------------------------------------------
    B|--------------------------------------------------------------------------------
    G|--------------------------------------------------------------------------------
    D|-------3------------------------------------------------------------------------
    A|-----3----2--3--2h3h5--3-2-------------------------------------------------
    E|--1-----------------------------------------------------------------------------


    h- hammer on
    p = pull up

    Repeat the above

    e|--------------------------------------------------------------------------------
    B|--------------------------------------------------------------------------------
    G|--------------------------------------------------------------------------------
    D|-------2------------------------------------------------------------------------
    A|-----2---0--2--0h2h3p2-2p0----------------------------------------------
    E|--0-----------------------------------------------------------------------------


    Repeat the above and then the song/chords begin
     
  13. rizaaj

    rizaaj Forum Leader

    great work notty.. u deserve reps... :)
     
  14. notty_lad

    notty_lad sudo undress

    @djmistry .. not sure bout da bass .. but will let ya know ..

    @rizaaj .. thankies bud :)
     
  15. sahilisahunk

    sahilisahunk New Member

    g8t chords man
     
  16. iprakash

    iprakash Proud IGTian

    Nice of you to exactly show the chord changes. I tried it, liked it, but am not satisfied with the D chord in the first line. Is this correct? Also on the second line A sounds better than D. So from D or A, as suggested, I would recommend A.

    A simple slow strumming D D (Mute) D works great. Give it a try.
     
  17. subheet

    subheet New Member

    Hey Notty dear ..great work...

    Reps coming your way
    Thanx a lot
     
  18. akki_rocx0025

    akki_rocx0025 New Member

    plzz tellmee what does that 2p3 means????
     
  19. akki_rocx0025

    akki_rocx0025 New Member

    plzz tellmee what does that 2p3 means????
     
  20. jay4chords

    jay4chords New Member

    nice work .thanx to all who given this tabs.
    lots of thanx.....................................
     

Share This Page