Har Jaga hai Jal Tab

Discussion in 'Pakistani Guitar Tabs - Submit or Request' started by umarboy, May 18, 2005.

  1. umarboy

    umarboy Tabber

    Har Jaga hai Jal

    Song = Har jaga hai Jal
    Artist = Jal
    Tabbed by Umar
    comments @

    =================================================================
    e|-----0--|-------5------|-----0---------5---|-----------------|
    B|---7--7-|---7-----7----|---7---7---7-----7-|-----------------|
    G|-4------|-4---4--------|-4-------4---4-----|-----------------| Guitar 1
    D|--------|--------------|-------------------|-----------------|
    A|--------|--------------|-------------------|-----------------|
    E|--------|--------------|-------------------|-----------------|



    e|-x-----|-------x---------|-------x----------|-----------------|
    B|-x-----|-------x---------|-------x----------|-----------------|
    G|-x-----|-------x---------|-------x----------|-----------------|
    D|-9-----|-------9---------|-------9----------|-----------------| Guitar 2
    A|-7-----|-------7---------|-------7----------|-----------------|
    E|-x-----|-------x---------|-------x----------|-----------------|



    e|-----0--|-------5------|-----0---------5---|------------------|
    B|---7---7|---7-----7----|---7---7---7-----7-|------------------|
    G|-5------|-5---5--------|-5-------5---5-----|------------------| Guitar 1
    D|--------|--------------|-------------------|------------------|
    A|--------|--------------|-------------------|------------------|
    E|--------|--------------|-------------------|------------------|




    e|-x-----|-------x---------|-------x----------|-----------------|
    B|-x-----|-------x---------|-------x----------|-----------------|
    G|-x-----|-------x---------|-------x----------|-----------------| Guitar 2
    D|-5-----|-------5---------|-------5----------|-----------------|
    A|-3-----|-------3---------|-------3----------|-----------------|
    E|-x-----|-------x---------|-------x----------|-----------------|



    e|-----0--|-------5------|-----0---------5---|------------------|
    B|---7---7|---7-----7----|---7---7---7-----7-|------------------|
    G|-4------|-4---4--------|-4-------4---4-----|------------------| Guitar 1
    D|--------|--------------|-------------------|------------------|
    A|--------|--------------|-------------------|------------------|
    E|--------|--------------|-------------------|------------------|



    e|-x-----|-------x---------|-------x----------|-----------------|
    B|-x-----|-------x---------|-------x----------|-----------------|
    G|-x-----|-------x---------|-------x----------|-----------------|
    D|-9-----|-------9---------|-------9----------|-----------------| Guitar 2
    A|-7-----|-------7---------|-------7----------|-----------------|
    E|-x-----|-------x---------|-------x----------|-----------------|



    e|-----0--|-------5------|---5-----5----5---|-----------------|
    B|---7---7|---7-----7----|------7----7----7-|-----------------|
    G|-5------|-5---5--------|-5------5----5----|-----------------| Guitar 1
    D|--------|--------------|------------------|-----------------|
    A|--------|--------------|------------------|-----------------|
    E|--------|--------------|------------------|-----------------|



    e|-x-----|-------x---------|-------x----------|-----------------|
    B|-x-----|-------x---------|-------x----------|-----------------|
    G|-x-----|-------x---------|-------x----------|-----------------| Guitar 2
    D|-5-----|-------5---------|-------5----------|-----------------|
    A|-3-----|-------3---------|-------3----------|-----------------|
    E|-x-----|-------x---------|-------x----------|-----------------|
    =================================================================


    e|-x-----|-------x---------|-------x----------|-------x----------|
    B|-x-----|-------x---------|-------x----------|-------x----------|
    G|-x-----|-------x---------|-------x----------|-------x----------|
    D|-9-----|-------9---------|-------5----------|-------5----------|
    A|-7-----|-------7---------|-------3----------|-------3----------|
    E|-x-----|-------x---------|-------x----------|-------x----------|
    Bhulu......Ga Mein...Na Kabhi yea Pal


    e|-x-----|-------x---------|-------x----------|-------x----------|
    B|-x-----|-------x---------|-------x----------|-------x----------|
    G|-x-----|-------x---------|-------x----------|-------x----------|
    D|-9-----|-------9---------|-------5----------|-------5----------|
    A|-7-----|-------7---------|-------3----------|-------3----------|
    E|-x-----|-------x---------|-------x----------|-------x----------|
    Dekhte Dekhte ae..her jaga hai JAL.........her jaga hai jal


    ==================================================================
    e|-----0--|-------5------|-----0---------5---|-----------------|
    B|---7--6-|---7-----7----|---7---7---7-----7-|-----------------|
    G|-4------|-4---4--------|-4-------4---4-----|-----------------| Guitar 1
    D|--------|--------------|-------------------|-----------------|
    A|--------|--------------|-------------------|-----------------|
    E|--------|--------------|-------------------|-----------------|



    e|-x-----|-------x---------|-------x----------|-----------------|
    B|-x-----|-------x---------|-------x----------|-----------------|
    G|-x-----|-------x---------|-------x----------|-----------------|
    D|-9-----|-------9---------|-------9----------|-----------------| Guitar 2
    A|-7-----|-------7---------|-------7----------|-----------------|
    E|-x-----|-------x---------|-------x----------|-----------------|



    e|-----0--|-------5------|-----0---------5---|------------------|
    B|---7---7|---7-----7----|---7---7---7-----7-|------------------|
    G|-5------|-5---5--------|-5-------5---5-----|------------------| Guitar 1
    D|--------|--------------|-------------------|------------------|
    A|--------|--------------|-------------------|------------------|
    E|--------|--------------|-------------------|------------------|




    e|-x-----|-------x---------|-------x----------|-----------------|
    B|-x-----|-------x---------|-------x----------|-----------------|
    G|-x-----|-------x---------|-------x----------|-----------------| Guitar 2
    D|-5-----|-------5---------|-------5----------|-----------------|
    A|-3-----|-------3---------|-------3----------|-----------------|
    E|-x-----|-------x---------|-------x----------|-----------------|

    ==================================================================
    wuzzza!...u guyz gona enjoy this alot :)
    Paste on Notepad for better view..and guyz sorry..iv just misplaced "7" with "6" earlier
     
  2. FEMUR BREAKER

    FEMUR BREAKER New Member

    very good umar boy........keep up the good work!
     
  3. Aka Oz

    Aka Oz /\K/\ - Ozy

    Shahzada chai gaye
     
  4. Dj Sam

    Dj Sam New Member

    Gr8 Tabs Again Mate...

    Tu mahinon baad aata hai aur aatey hee chaaa jaata hai ur goona be a PappU guiTari$t one Day Inshallah...

    Chal yeh bata classes kab sey start ho rahee hain aGain ....
     
  5. BIG_EVIL

    BIG_EVIL Guitaring Machine

    yaar intro fit nahe hay

    this is the real one

    e---------0------------5---------------
    b------7---7----7--------7------------
    g---4---------4-----4-----------------
    d---------------------------------------
    a---------------------------------------
    E---------------------------------------
     
  6. Aka Oz

    Aka Oz /\K/\ - Ozy

    big evil gr8
     
  7. zohaib

    zohaib Shredder

    agreed with big evil
    6 ki bajaye 7 :)
     
  8. ibm

    ibm New Member

    good work umer ur nick must be the TabMaster :)
     
  9. umarboy

    umarboy Tabber

    im so fking sorry dude..iv just misplaced "7" with "6"
    anyways u guyz can either delete or edit ur Msgs :)
    and thnsk for telling...
     
  10. Orange Guitar

    Orange Guitar IGT's ALLROUNDER

    nice tabs....power chords add a very gud impression in the intro!
     
  11. J.J

    J.J The Guitar God

    UmerBoy yaar kis kisam ka banda hai tu bhi na. ALA
     
  12. Aka Oz

    Aka Oz /\K/\ - Ozy

    gooood wrk
     
  13. Authentic

    Authentic Banned

    umar ager

    e|-x-----|-------x---------|-------x----------|-----------------|
    B|-x-----|-------x---------|-------x----------|-----------------|
    G|-9-----|-------9---------|-------9----------|-----------------|
    D|-9-----|-------9---------|-------9----------|-----------------| Guitar 2
    A|-7-----|-------7---------|-------7----------|-----------------|
    E|-x-----|-------x---------|-------x----------|-----------------|


    e|-x-----|-------x---------|-------x----------|-----------------|
    B|-x-----|-------x---------|-------x----------|-----------------|
    G|-5-----|-------5---------|-------5----------|-----------------| Guitar 2
    D|-5-----|-------5---------|-------5----------|-----------------|
    A|-3-----|-------3---------|-------3----------|-----------------|
    E|-x-----|-------x---------|-------x----------|-----------------|

    then i think zayada acha hai but otherwise it rocks :)
     
  14. ImR@|\|

    ImR@|\| GuiTar MaNiaC

    I juz made a lil correction...

    e|-x-----|-------x---------|-------x----------|-----------------|
    B|-x-----|-------x---------|-------x----------|-----------------|
    G|-x-----|-------x---------|-------x----------|-----------------|
    D|-x-----|-------x---------|-------x----------|-----------------| Guitar 2
    A|-7-----|-------7---------|-------7----------|-----------------|
    E|-x-----|-------x---------|-------x----------|-----------------|


    e|-x-----|-------x---------|-------x----------|-----------------|
    B|-x-----|-------x---------|-------x----------|-----------------|
    G|-x-----|-------x---------|-------x----------|-----------------|
    D|-x-----|-------x---------|-------x----------|-----------------| Guitar 2
    A|-3-----|-------3---------|-------3----------|-----------------|
    E|-x-----|-------x---------|-------x----------|-----------------|


    Itz 7 and 3... not 7-9...
    i juz recorded it...

    http://www.angelfire.com/poetry/imran0/-_Har_jaga_hay_JaL_-.wma
     
  15. umarboy

    umarboy Tabber

    who are u proving wrong :S
    and man try to upload things @ soundclick.com
    it easy to listen to songs there...
     
  16. ImR@|\|

    ImR@|\| GuiTar MaNiaC

    Man soundclick.. is too Slow... doesnt opens at my pc.. :(

    Well i recorded it thats n i sounded perfect to me.. thats y am provin that urz guitar-2 part is wrong
     
  17. umarboy

    umarboy Tabber

    lol...man thats crazy
     
  18. BIG_EVIL

    BIG_EVIL Guitaring Machine

    doesnt open.......
     
  19. faiqrock

    faiqrock XaiQ

    umer bhai u r GREAT.....
    reps for u
     

Share This Page