Har Dil Jo Pyar Kare Ga tabs

Discussion in 'Hindi Guitar Tabs - Submit or Request' started by demon, Nov 11, 2003.

  1. demon

    demon New Member

    hey guyzz im new here can some body give Har Dil Jo Pyar Kare Ga tabs
    thanx :)
     
  2. FinalPhase

    FinalPhase New Member

    yea, me2:)
     
  3. demon

    demon New Member

    hey guys come on.dont u have any Har Dil Jo Pyar Kare Ga tabs
    plz i want them
    thanx
     
  4. umarboy

    umarboy Tabber

    there u go

    Song = Her dil jo pyar kare ga
    movie = her dil jo pyar karega
    tabed by umar
    comments @ umarboy@hotmail.com


    E -----------9-7-7----------------------
    B -7-9-10-10----------------------------
    G --------------------------------------
    D --------------------------------------
    A --------------------------------------
    E --------------------------------------
    Use hasna bhi hoga




    E -------7-5-5--------------------------
    B -5-7-9--------------------------------
    G --------------------------------------
    D --------------------------------------
    A --------------------------------------
    E --------------------------------------
    Use rona bhi hoga



    E -----------9-7-7----------------------
    B -7-9-10-10----------------------------
    G --------------------------------------
    D --------------------------------------
    A --------------------------------------
    E --------------------------------------
    Use pa na bhi hoga




    E -------7-5-5--------------------------
    B -5-7-9--------------------------------
    G --------------------------------------
    D --------------------------------------
    A --------------------------------------
    E --------------------------------------
    Use kohna bhi hoga




    E --------------------------------------
    B -14-14--14-15-14-12-12-12-9-12-14-10-10
    G --------------------------------------
    D --------------------------------------
    A --------------------------------------
    E --------------------------------------
    Suba,shaam tanayee mai aahay bharega



    E -------7-5-5--------------------------
    B -5-7-9--------------------------------
    G --------------------------------------
    D --------------------------------------
    A --------------------------------------
    E --------------------------------------
    her dil jo pyar kare ga

    E -------7-5-5--------------------------
    B -5-7-9--------------------------------
    G --------------------------------------
    D --------------------------------------
    A --------------------------------------
    E --------------------------------------
    her dil jo pyar kare ga
     
  5. demon

    demon New Member

    hey thanx umarboy
    it plays perfectly
     
  6. Nixon_Soul

    Nixon_Soul New Member

    heeeeeeeeeeeeeeeeeeeeeeeeeeeeeeeeeeeeeeeeeeeehaaaaaaaaaaaaaaaaa

    umer bahi..........u r the real cowboy .....................smack it baby...

    peace
     
  7. umi_rulez

    umi_rulez New Member

    can anybody help with the chords of the song sahiba sahiba...koi meri jaan le le...by the same movie har dil jo piar kare ga???????
     

Share This Page