guitarist and fan of IRON MAID need help with afraid to shoot strangers

Discussion in 'Beginner's Q&A Forum' started by JUDAS_666, Aug 10, 2004.

  1. JUDAS_666

    JUDAS_666 New Member

    i,
    I'm a beginner guitarist and a die hard fan of IRON MAIDEN. Can anybody
    help me in playing the following song-
    AFRAID TO SHOOT STRANGERS:
    -------------------------------
    ------7-7h9--7h9p7-------------
    -7h9---------------9-8-6h8p6---
    -----------------------------9-
    -------------------------------
    -------------------------------

    -----------------------------------------
    -10h12-10-8h10-7--------------------------
    -----------------9-7-6-----6---6-6-6p4----
    -----------------------9-7------------6h9-
    ------------------------------------------
    ------------------------------------------

    I tried so much but I couldn't get it right. How to play those slides/hammer
    and pulls effectively like in 7-7h9-7h9p7.............
     

Share This Page