Guitar tabs of milli that star plus show

Discussion in 'Hindi Guitar Tabs - Submit or Request' started by hannan, Aug 28, 2005.

  1. hannan

    hannan New Member

    i want tabs of milli ........ that star plus show ... can ay 1 help me
     
  2. amirsimsibshako

    amirsimsibshako New Member

    its allready posted here so please search b4 u request
     
  3. amirsimsibshako

    amirsimsibshako New Member

    this is not my tabs

    Song - Milli
    From - Starplus
    Tabbed by Umar
    comments [SNIP]

    Listen to the Audio File here
    ================================================== ==========
    http://www.soundclick.com/bands/2/r0cmusic.htm
    ================================================== ==========


    e|----------|----------------|-----------------|------------------|
    B|----------|----------------|-----------------|------------------|
    G|/9--------|-----7-9-10-----|-7-9-10-10-10-10-|12-10-9-7-5-7-7h9-|
    D|---10-9-7-|-7--------------|-----------------|------------------|
    A|----------|----------------|-----------------|------------------|
    E|----------|----------------|-----------------|------------------|



    e|----------|----------------|-----------------|------------------|
    B|----------|--10-10-8-------|-----------------|------------------|
    G|-9--------|---------10-----|-7-9-10-10-10-10-|12-10-9-7-5-7-7h9-|
    D|---10-9-7-|7---------------|-----------------|------------------|
    A|----------|----------------|-----------------|------------------|
    E|----------|----------------|-----------------|------------------|



    copy and paste them in Notepad for better view
     

Share This Page