Guitar Pro and Power Tabs for Bin Tere Sanam - Remix

Discussion in 'Hindi Guitar Tabs - Submit or Request' started by deepakborania, Jul 6, 2006.

  1. deepakborania

    deepakborania New Member

    Hey guys check out Power And Guitar Pro tabs for the song Bin Tere Sanam - remix.
    I am als pastin text tabbs for it.
    #----------------------------------PLEASE NOTE---------------------------------#
    #This file is the author's own work and represents their interpretation of the #
    #song. You may only use this file for private study, scholarship, or research. #
    #------------------------------------------------------------------------------##

    BIN TERE SANAM

    Transcribed by Deepak Borania

    Gtr I (E A D G B E) - 'Distortion'

    Bin tere Sanam Mar Mitenge Hum
    4/4
    Gtr I
    Q E Q E Q Q E Q E Q
    |----5---------|----5---------|
    |------6--5----|------6--5----|
    |-7---------7--|-7---------7--|
    |--------------|--------------|
    |--------------|--------------|
    |--------------|--------------|


    Aa meri, zindagi hoooo aana hi pada sajna
    5/4 4/4 7/8
    Q E Q Q E Q +Q Q E Q E Q E E E Q
    |----5------------|------5--5-6--5-|--------------|
    |------6--8--6-5--|-(5)------------|-8--6-6-8-5---|
    |-7---------------|----------------|--------------|
    |-----------------|----------------|--------------|
    |-----------------|----------------|--------------|
    |-----------------|----------------|--------------|


    Zaalim hai dil ki lagi..
    4/4 1/8
    Q E E E E E E +E
    |----------------|--------*|
    |-5--6-5---6-5---|--------*|
    |--------6-----7-|-(7)----*|
    |----------------|--------*|
    |----------------|--------*|
    |----------------|--------*|


    Duration Legend
    ---------------
    W - whole; H - half; Q - quarter; E - 8th; S - 16th; T - 32nd; X - 64th; a - acciaccatura
    + - note tied to previous; . - note dotted; .. - note double dotted
    Uncapitalized letters represent notes that are staccato (1/2 duration)
    Irregular groupings are notated above the duration line
    Duration letters will always appear directly above the note/fret number it represents the
    duration for. Duration letters with no fret number below them represent rests. Multi-
    bar rests are notated in the form Wxn, where n is the number of bars to rest for. Low
    melody durations appear below the staff

    Tablature Legend
    ----------------
    h - hammer-on
    p - pull-off
    b - bend
    pb - pre-bend
    r - bend release (if no number after the r, then release immediately)
    /\ - slide into or out of (from/to "nowhere")
    s - legato slide
    S - shift slide
    <n> - natural harmonic
    [n] - artificial harmonic
    n(n) - tapped harmonic
    ~ - vibrato
    tr - trill
    T - tap
    TP - trem. picking
    PM - palm muting
    \n/ - tremolo bar dip; n = amount to dip
    \n - tremolo bar down
    n/ - tremolo bar up
    /n\ - tremolo bar inverted dip
    = - hold bend; also acts as connecting device for hammers/pulls
    <> - volume swell (louder/softer)
    x - on rhythm slash represents muted slash
    o - on rhythm slash represents single note slash

    Misc Legend
    -----------
    | - bar
    || - double bar
    ||o - repeat start
    o|| - repeat end
    *| - double bar (ending)
    : - bar (freetime)
    $ - Segno
    & - Coda
    Tempo markers - <E/E./Q/Q./H/H.> = BPM(8/16=s8/s16), where s8 = swing 8ths, s16 = swing 16ths


    ***************************************************************************************
    * Generated using Power Tab Editor by Brad Larsen - http://powertab.guitarnetwork.org *
    ***************************************************************************************
     

    Attached Files:

    paranoid13rohan likes this.
  2. deepakborania

    deepakborania New Member

    Reuest to lord_neo (Admin)

    Hey lord_neo , why don't you encourage makin of Guitar Pro and Power Tabs for indian Songs As it will be very useful for everybody.
     
  3. paranoid13rohan

    paranoid13rohan .: iNDiaN iDioT 3.0 :.

    Hi-Fi stuff man ... :dance:

    REPs 4 u ... :):)

    u :rule: ... :nw::nw::nw::nw::nw:
     
  4. iprakash

    iprakash Proud IGTian

    Good work

    Hello Deepak, good work. Try to use a fixed font for tabs or else the alignment suffers. I tried the tabs and corrected it at places. The corrections are highlighted in blue below.

    Code:
    e|------5-----------------5-----------------------------
    b|--------6--5--------------6--5------------------------
    g|--7----------7------7-----------7---------------------
    d|------------------------------------------------------
    A|------------------------------------------------------
    E|------------------------------------------------------
        Bin tere sanam    Mar mitenge hum
    
    
    e|-----5-------------------5------5-6--5-------------------
    b|-------6--[B][COLOR="RoyalBlue"]6[/COLOR][/B]-[B][COLOR="RoyalBlue"]8[/COLOR][/B]-[B][COLOR="RoyalBlue"]8[/COLOR][/B]--865--------------------8-6---6-[B][COLOR="RoyalBlue"]8[/COLOR][/B]-8--5---
    g|--7------------------------------------------------------
    d|---------------------------------------------------------
    A|---------------------------------------------------------
    E|---------------------------------------------------------
        Aa meri zin-da-gii     Ho ... aana hi pada  sajana-aa
    
    e|------------------------------------------------------
    b|--5--6---5-------[B][COLOR="RoyalBlue"]5[/COLOR][/B]------------------------------------
    g|-------------[B][COLOR="RoyalBlue"]5[/COLOR][/B]------7-7-------------------------------
    d|------------------------------------------------------
    A|------------------------------------------------------
    E|------------------------------------------------------
        Zaalim hai dil ki lagi
    
    Reps anyone?
     
  5. deepakborania

    deepakborania New Member

    Thanks paranoid13rohan for reps
    and igtprakash for correction
     

Share This Page