Guitar playing sucks;REQUEST FOR ANY GODDAMN ENGLISH CHORD OR TABS

Discussion in 'English Guitar Tabs - Submit or Request' started by cdscan2000, Jul 26, 2006.

  1. cdscan2000

    cdscan2000 Help!! Antacid please!!

    Guitar playing is soeasy.why da hell people say its tough;
    request for any number i am right here.its like i can eat the fretboard

    So all the guys who like

    SYSTEM OF A DOWN
    CANNIBAL CORPSE
    CHILDREN OF BODOM
    CRADLE OF FILTH
    IRON MAIDEN
    KORN
    MARILYN MANSON
    DEFTONES
    HEAD BANGING
    PANTERA

    R WELCOMEE!!

    STAY COOL!!!
     
  2. sayanakaharry

    sayanakaharry Forum Leader

    then go eat it, what are you doing on a forum for lower mortals? go and have a G3 concert with God and his Son. IGT is not ur place.
    That attitude of yours won't take u any place.
     
  3. CrYpTiC_angel

    CrYpTiC_angel Rebelle!

    nah, we dont want tabs.

    why dont u record smthng and let us hear u play?
     
  4. prit_undead

    prit_undead New Member

    love ur confidence
    someone once said dat guitar playing is 10% skill and 90% showmanship
    dat way even i've picked up 90% of the art
    its the 10% that i'm worried about
    but looks like it u've got everything in ur pocket
    there's a line i heard somewhere.long ago.........it went like..........empty vessels make the most noise
    hang on...y did i say this? ah i must have gone nuts
    well looks like i'm not the only 1
    i've got u for company
     
  5. bjr

    bjr Lady of the Evening

    A long standing request



    Ten Years After- The Bluest Blues


    Tabs and Chords



    Earth Wind and Fire- Fantasy

    Tabs and Chords



    Thanking you
    sincerely
    bjr
     
  6. cumming soon

    cumming soon Banned

    hi

    if it is so easy why dont u give some tips from your swollen head for people who are starting and those who dont find it that easy
     
  7. limaj_daas

    limaj_daas Guitar Pro Maniac

    Hey can you tab out Steve Vai - I'm The Hell Outta Here live @ Denver? seriously a skill checker. do tab out the billy sheehan solo.
     
  8. meet_shiraz

    meet_shiraz New Member

    hiiii
    Can u please tab out bruce springsteen-worlds apart solo and chopsuey on standard tuning
     
  9. cdscan2000

    cdscan2000 Help!! Antacid please!!

    "Get the hell outta here tab" -steve vai

    Get The Hell Outta Here-Steve Vai
    T
    e|-19-15h17-| X8 |-15~~----|-17fb~~----|--------|
    B|----------| |---------|-----------|--------|
    G|----------| | --------|-----------|--------|
    D|----------| |---------|-----------|--------|
    A|----------| |---------|-----------|---X\\--|
    E|----------| |---------|-----------|---X\\--|


    Main Riff (rythym)
    |-----------------------------|----------------------------------| X2
    |-----------------------------|----------------------------------|
    |-----------------------------|----------3-----------------------|
    |-----------------5---5--5-5--|-3------3-----------------3-------|
    |-5---5-7--5-5----3---3--3-3--|-1--3/5------5\--3------3---------|
    |-3---3-3--3-3----------------|-----------------1--3/5------5\---|


    |------------------------| X3
    |--8\---8\---8\---8-8-8--|
    |--7\---7\---7\---7-7-7--|
    |------------------------|
    |------------------------|
    |------------------------|


    Main Riff (lead):
    |---------------------------------------------------------------------------|
    |13b(15)-r13p11-13b(15)~--13b(15)r13p11-13~~--11--13-13b(15)r13p11----------|
    |------------------------------------------------------------------12-10~~--|
    |---------------------------------------------------------------------------|
    |---------------------------------------------------------------------------|
    |---------------------------------------------------------------------------|


    |---------------------------------------------------------------------------|
    |-15-15-15-15-15-15-18-17--13--------15-15-15-15-15-15-18-------------------|
    |-----------------------------12~-------------------------15----17----19----|
    |---------------------------------------------------------17(19)19(21)21(23)|
    |---------------------------------------------------------------------------|
    |---------------------------------------------------------------------------|

    |--------------------------------------------------------------------|
    |--18(20)r18(20)--18(20)\----13(15)r13~--11-13-13(15)r13-11----------|
    |-----------------------------------------------------------12-10~~--|
    |--------------------------------------------------------------------|
    |--------------------------------------------------------------------|
    |--------------------------------------------------------------------|


    |--------------------------------------------------------------------|
    |--18(20)r18(20)--18(20)\----13(15)r13~--11-13-13(15)r13-11-13-11~~--|
    |--------------------------------------------------------------------|
    |--------------------------------------------------------------------|
    |--------------------------------------------------------------------|
    |--------------------------------------------------------------------|

    ...and so on.


    The Trill Part

    (Trill All Open Notes)

    |---------------------------------------------------------------------|
    |---------------------------------------------------------------------|
    |-1-0-3-0-5-0-3-0-7-0-5-10-0-7-12-0-12-0-10-15-0-12-17-0-15-0-17-12\--|
    |---------------------------------------------------------------------|
    |---------------------------------------------------------------------|
    |---------------------------------------------------------------------|

    Then Repeat Going Downwards
     
  10. cdscan2000

    cdscan2000 Help!! Antacid please!!

    World apart & Chopsuey-NJOY

    World Apart-Bruce Springsteen


    Em Em D and Em

    Em D Em
    Li li li li li, li li li li li, li li li li, li li li li li,
    Em D Em
    Li li li li li, li li li li li, li li li li, li li li li li,

    Em
    I hold you in my arms, yeah that's when it starts,
    D Em
    I see faith in your kiss, and comfort in your heart,
    Em
    I taste the seed upon your lips, lay my tongue upon your scars,
    D Em
    But when I look in your eyes, we stand worlds apart,

    Em D Em
    Li li li li li, li li li li li, li li li li, li li li li li,
    Em D Em
    Li li li li li, li li li li li, li li li li, li li li li li,

    Em
    Where the distant oceans sing, and rise to the plain,
    D Em
    In this dry and troubled country, your beauty remains,
    Em
    Down from the mountain roads, where the highway rolls to dark,
    D Em
    'Neath Allah's blessed rain, we remain worlds apart,

    Em D Em
    Li li li li li, li li li li li, li li li li, li li li li li,
    Em D Em
    Li li li li li, li li li li li, li li li li, li li li li li,

    Guitar solo over Em D Em G D Em

    Em
    Sometimes the truth just ain't enough, or it's too much in times like these,
    D Em
    Let's throw the truth away, we'll find it in this kiss,
    Em
    In your skin upon my skin, in the beating of our hearts,
    D Em
    May the living let us in, before the dead tear us apart,


    Em D Em
    Li li li li li, li li li li li, li li li li, li li li li li,
    Em D Em
    Li li li li li, li li li li li, li li li li, li li li li li,

    Em
    We'll let blood build a bridge, over mountains draped in stars,
    D Em
    I'll met you on the ridge, between these worlds apart,
    Em
    We've got this moment now to live, then it's all dust and dark,
    D Em
    Let's let love give what it gives, let's let love give what it gives,


    Em D Em
    Let's let love give what it gives,
    Em D Em
    Let's let love give what it gives,
    Em D Em
    Let's let love give what it gives,
    Em D Em
    Let's let love give what it gives,
    Em D Em
    Let's let love give what it gives,

    Solo over Em D Em

    I think the rather fantastic solo is based around the 12th and 15th frets on the B and e (top 2) strings -
    do a lot of unison bends etc....
    I am trying it out.i never tried this song.

    HEY I WAS CONFUSED ABOUT "CHOPSUEY".IS IT BY SYSTEM OF A DOWN?

    Chopsuey-System Of A Down

    U hav asked to do it in standard tuning.But if u play it in in the variation of
    D-minor-open C tuning it will be the best.u can convert it later on.

    The asterisks (*) mean that the measures are repeated.

    The tuning for this song is as follows:
    D
    A
    F
    C
    G
    C

    |------------------------|-----------------------|
    |------------------------|-----------------------|
    |5--5-5-5-5--5-5-5-5--5-5|5/7---7-7-7-7--7-7-7-7-|
    |7--7-7-7-7--7-7-7-7--7-7|7/9---9-9-9-9--9-9-9-9-|
    |0--0-0-0-0--0-0-0-0--0-0|0-0---0-0-0-0--0-0-0-0-|
    |------------------------|-----------------------|
    Riff 1

    |--------------------|-------------------|
    |--------------------|-------------------|
    |4--4-4-4-4--4-4-4-4-|2--2-2-2-2--2-2-2-2|
    |5--5-5-5-5--5-5-5-5-|3--3-3-3-3--3-3-3-3|
    |0--0-0-0-0--0-0-0-0-|0--0-0-0-0--0-0-0-0|
    |--------------------|-------------------|


    |------------|-----------|-----------|-----------|
    |------------|-----------|-----------|-----------|
    |-5---5---5--|7---7---7--|4---4---4--|2---2---2--|
    |---7---7---7|--9---9---9|--5---5---5|--3---3---3|
    |------------|-----------|-----------|-----------|
    |------------|-----------|-----------|-----------|
    Riff 2


    |-/8--|/10-|-7-|-12-|-12-|-13-|-10-|-13-|
    |-/10-|/12-|-8-|-13-|-13-|-15-|-12-|-15-|
    |-----|----|---|----|----|----|----|----|
    |-----|----|---|----|----|----|----|----|
    |-----|----|---|----|----|----|----|----|
    |-----|----|---|----|----|----|----|----|
    Riff 3 strum each chord 16 times every measure


    |----------|-------------|---------------------------------|
    |----------|-------------|---------------------------------|
    |*---------|------------*|*--------------------------------|
    |*---------|------------*|*--------------------------------|
    |-7h8--6h7-|-9h10--11h12-|---------------------------------|
    |-7h8--6h7-|-9h10--11h12-|-7-7-7-7-7-7-7-7-6-6-6-6-6-6-6-6-|
    Riff 4 play each hammer-on 4 times. (this riff is played

    ----------------------------------------|
    ----------------------------------------|
    ---------------------------------------*|
    ---------------------------------------*|
    ----------------------------------------|
    9-9-9-9-9-9-9-9-12-12-12-12-12-12-12-12-|
    right before the first verse)


    |-----------------------|-------------------------|
    |-----------------------|-------------------------|
    |*----------------------|------------------------*|
    |*----------------------|------------------------*|
    |-7h8---7h8-7h8-7h8-7h8-|--6h7---6h7-6h7-6h7-6h7--|
    |-7h8---7h8-7h8-7h8-7h8-|--6h7---6h7-6h7-6h7-6h7--|
    Riff 5 played during the verses (repeat as necessary)

    |--------|-------|-------|--------|
    |--------|-------|-------|--------|
    |*-2-----|-------|-5-----|-------*|
    |*-2-----|-3-----|-5-----|-3-----*|
    |--0-----|-3-----|-3-----|-3------|
    |--------|-3-----|-------|-3------|
    Riff 6
    "...forsaken me, in your eyes forsaken me, in your thoughts..."

    Riff 6 is played as the outro. Repeat until song ends
     
  11. bjr

    bjr Lady of the Evening

    ah, so you decided to completely ignore my requests?



    Was it something to do with the fact that the tabs/chords I asked for are not available on the internet?
     
  12. g0g0l

    g0g0l ! SpAm

    How about Glasgow kiss??? Also, I ud rather like to hear your recording of this solo!!

    Can you tab Some Jimmy Hendrix Numbers also??

    Oh! Do post your "Fret Eating Video"!!! I ud luv to C dat also :p:
     
  13. limaj_daas

    limaj_daas Guitar Pro Maniac

    I'm the hell outta here: dude i asked for the live version. it's an 8 min song on the g3-live@denver dvd. u missed out the guitar harmonization part and billy seehan's bass solo.

    oh and b4 copyin it from: http://www.ultimate-guitar.com/tabs/s/steve_vai/get_the_hell_outta_here_tab.htm

    you could've checked that it didn't hav a solo and the rating wuz low.

    cheap ripoff. c'mon post a vdo of summin and show ur worth. and plz don't copy tom hess's vdos.
     
  14. g0g0l

    g0g0l ! SpAm

    ^^^Lol.. Well pointed out! @CDSCAN, Please run a CT SCAN on your brain beta (atleast 2000 times to get good result). HAve you already eaten The fret board dear? Is there any doctor in the place?? :sadbye:
     
  15. CrYpTiC_angel

    CrYpTiC_angel Rebelle!

    haha.. pwned!

    @CDSCAN

    u probably meant to say that copy-pasting tabs is so easy :p
     
  16. bjr

    bjr Lady of the Evening

    psh, I'd already pwned him :'(
     
  17. g0g0l

    g0g0l ! SpAm

    check his avatar and yser title :grin: :RollLol:
     
  18. limaj_daas

    limaj_daas Guitar Pro Maniac

    man the thread should've actually named: CopyPastin suck; Request for any goddamn english chord or tabs that are already on the net cuz i'm a lil' pussy who don't kno that tabbin is not pressin ctrl+c and then switchin windows n' pressin ctrl+v. lollllllz.... i dunno why these jackass think that everyone here is a retard,....

    oh and bjr... good goin to u too man. keep up the good work lollz.
     

Share This Page