Genda Phool Dilli 6 .. tabs Submission

Discussion in 'Hindi Guitar Tabs - Submit or Request' started by alaba, Jun 24, 2009.

  1. alaba

    alaba New Member

    Hey guyz ...

    i m Posting a Short Video of Genda phool Lead ....Its Easy .. hopefully u l likeit ..
    please leave ur views n rating on both sites .. IGI n utube!

    http://www.youtube.com/watch?v=WEBOfZGf9qg
    Thanks!!
     
  2. guitar_ratiug

    guitar_ratiug New Member

    Hi,
    Can you please post the tab notations. Its really good one.
    It would really help if u can post the tabs
     
  3. alaba

    alaba New Member

    ..


    ok thanx a Lot ... Tabs will be there in a couple of days!!
     
  4. alaba

    alaba New Member

    Hoye hoye hoye] – 3times


    Saas gaari deve,
    b-----5---------------------------------
    e--------4--66--7

    Dewar samjha leve,
    e--7-6-7-6-4-6-7

    Sasural genda phool,
    b------------9----9
    e---7-7-6-6----6

    Chora babul ka angana,Bhaave deraa piya ka ho,
    b--9-------------------------------------9
    e------6-6--9-9-9-9-9---8-8--8-6-8-6-



    Saas gaari deve,
    Dewar samjha leve,
    Sasural genda phool,
    same as above

    Saiyaan hai vypaari,Chale hain pardes,
    b--9------------------------------------
    e------6-6----9-9-9- ---9-9-(slide to)s-11-s-9

    Sooratiyaan niharu, jiyara bhaari howe,
    e--9-9-9-9--11-9--8--6---6-6---4-6---6-8
    Sasural genda phool…



    Ok So there is a scope of improvement as i m not most accurate but ya its some what close to it ... suggestions are welcomed(if they r +ve) ... hehehe :)


    Comments awaited!!
     

Share This Page