Gal Sunja By Atif ASLAM (JALPARI)

Discussion in 'Pakistani Guitar Tabs - Submit or Request' started by AaleE, Aug 3, 2004.

  1. AaleE

    AaleE A a l e E

    G D C D
    ooooo o o oo o o oooo oo o o ooo

    G D C D
    ooooo o o oo o o oooo oo o o ooo

    G C


    G C

    G C
    Gal sunja o meree Tu jaan waliya
    G D C
    tainoo rab da he raakha o jaan waliya
    G C
    chugiyan wich main labdee phiraan
    D C
    paniyan di main sair karan


    G C
    tere bajoon nai lagda ay jee way
    D C
    hanjoo hun meree sukhday nahe way
    G C
    jabtak mainoo tu na theinwain
    D C
    tabtak naye o balnay main deeway


    G C
    gal sunja Gal sunja


    Guitar Solo


    G C
    tere bajoon nai lagda ay jee way
    D C
    hanjoo hun meree sukhday nahe way
    G C
    jabtak mainoo tu na theinwain
    D C
    tabtak naye o balnay main deeway


    G C
    Gal sunja o meree Tu jaan waliya
    G D C
    tainoo rab da he raakha o jaan waliya
    G C
    chugiyan wich main labdee phiraan
    D C
    paniyan di main sair karan



    G C
    way main andar bahar jawan
    D C
    teree aaon di raah naa pawan
    G C
    Baythee rawan tay piplan di chawaan
    D C
    kehnday loog main noo kamli haan waan
    G
    o gal sunja

    G D C G
    E-15---15--14---14-13-15-13-12--10--12--14--15----------
    B-- 15-------15-----------------------------------------
    G-------------------------------------------------------
    D-------------------------------------------------------
    A-------------------------------------------------------
    E-------------------------------------------------------



    G D C G
    E----15--14---14-13-15-13-12--10--12--14-15-------------
    B--15-------15------------------------------------------
    G-------------------------------------------------------
    D-------------------------------------------------------
    A-------------------------------------------------------
    E-------------------------------------------------------


    G D C G
    E----15--14---14-13-15-13-12--10--12--14-15----------
    B--15-------15------------------------------------------
    G-------------------------------------------------------
    D-------------------------------------------------------
    A-------------------------------------------------------
    E-------------------------------------------------------


    G D C G
    E----15--14---14-13-15-13-12--10--12------------------
    B--15-------15------------------------------------------
    G-------------------------------------------------------
    D-------------------------------------------------------
    A-------------------------------------------------------
    E-------------------------------------------------------



    -------------------------------------
    -------------------------------------
    Song transcribed by (A a l e E)
    www.aalee.tk [SNIP]
    -------------------------------------
    -------------------------------------
     
  2. mash

    mash New Member

    wah wah, nice trick, thanks buddy
     
  3. aliraza

    aliraza New Member

    This is Great man.. thanks buddy for such a quick reply.. you rock buddy.. how do you do that.. i was trying and trying but i didn't came up with such a great piece of work.. hay got any tricks in you bag for ear tabbing a song.... or are there any guide lines for ear tabbing a song... or just hit and trial thing... i do that.. try to fit the cords starting from F maj and then using cord progression to match the scale.. but it didn't work that well with me.. a friend of mine told me this trick... the progression that i use are

    F Dm

    C Am

    G Em

    D Bm

    A F#m

    E C#m

    B G#m


    The thing goes like this... the miners next to the majors are there parallel miners... normally there are 3 to 4 chords used in a song, comprising majors and miners… start with F or C chords, lets say the song starts from C chord.. then the following formation can be used… i.e keeping the root chord in the middle and taking its respective top and bottom chords…

    F Dm

    C Am

    G Em

    D Bm


    Try to figure out the song using the major and miner chords… lets say the song goes like this….

    Em… D C ( Nothing else matters by “Metallica”)

    If you want to shift it to a lower scale then look at the formation in the table and use the same formation of chord changes..

    F Dm

    C (3) Am

    G Em (1)

    D (2) Bm

    Then it will become:


    F (3) Dm

    C Am (1)

    G (2) Em

    D Bm

    Or if you want to shift it to higher scale do the same thing… but now you shift your chords to the bottom…


    F Dm

    C Am

    G (3) Em

    D Bm (1)

    A (2) F#m

    E C#m

    Listen to the song and then match the scale……its also very useful when the singer singing with you can not sing at higher pitch.. you can shift the chords down to match up with him…

    Will this is the thing that I do… I am just a beginner… so figured this out my self.. may be there is some proper theory behind it . but I don’t know about it… so if you know some thing authentic you can let me know.. after all it will help us all…

    Cheers.


    Note: Can any one tell me that how can i put spaces between the text... as i've tried to put spaces between the major and minor chords, it didn't showed up in the actual post....
     
  4. hesham

    hesham New Member

    hi can any one of u tell me the tabs came in the middle of the song dil hare
     
  5. sam_guitar

    sam_guitar New Member

    ..... Strumming .. damn kaise kerni hia slow fast yaan normal and up down yaan down down up yaan up up down tell me plz
     
  6. Orange Guitar

    Orange Guitar IGT's ALLROUNDER

    hey u copy paster......u copy pasted these tabs...grom up man.....!!!!!!!!!!! lucku posted these chords and tabs...and these are power chords.....why other people gave this thread a 5 star rating :mad:!!!????
     
  7. ENT

    ENT TuMhArAa_AKS

    i m with orange :mad: :mad: :mad: :mad: :mad: :mad: :mad: :mad: :mad: :mad:
     
  8. Aka Oz

    Aka Oz /\K/\ - Ozy

    Im wid orange tooooo
     
  9. xee

    xee New Member

    cheaters shud be hanged but before hanging em...I'd rather suggest to burn their a$$es

    LOSER!!!! This song had been tabbed out by sumone ages ago, i dnt remember who was tht guy, but this is crazy when u just copy n paste others work... thts crazy, man!
     
  10. Quadrophenia

    Quadrophenia New Member

    i tabbed gal sunja..i didnt get 5* rating :((

    and btw..they're all power chords..not normal chords :p
     
  11. xee

    xee New Member

    No, I guess they are barre chords. I might be wrong but neways WHO CARES :p
     
  12. BIG_EVIL

    BIG_EVIL Guitaring Machine

    copy paste

    whats up wid y guyzzz
     
  13. Quadrophenia

    Quadrophenia New Member

    i care..they're all 5ths and not chords
     
  14. billX

    billX New Member

    uhh dude
    they'r power chords.
    no offense :)
    lekin theyr power chords that the guy plays in the song
    chq it out..
     
  15. Lahori_rocker

    Lahori_rocker Guitar God left IGT

    i m with orange
     
  16. Orange Guitar

    Orange Guitar IGT's ALLROUNDER

    quad did figured out gal sun ja pretty well!!!!! ab in copy pasters ka kya kerian????
     
  17. J.J

    J.J The Guitar God

    Mods do something delete this stuff...
     
  18. nadish

    nadish Active Member

    4 Hesham!!!
    Here are the tabs that cames in middle of the song "Dil Haray"

    NOT TABBED BY ME

    e|-------------------------------------------------------|
    b|-------------------------------------------------------|
    g|-7-7-5-4---4-7-7-5-4-5p4-4-4-4-5p4-4-4-4-5-4-5-4-4----4|
    d|---------7-----------------------------------------7-7-|
    a|-------------------------------------------------------|
    e|-------------------------------------------------------|


    e|-------------------------------------------5/7-8-7-5-7-|
    b|---------------------------------------8-7-------------|
    g|---------4-----4-----7-5-4------4----------------------|
    d|-7-5-5h7---7-7---7-5-------7-7-----7-5-----------------|
    a|-------------------------------------------------------|
    e|-------------------------------------------------------|


    e|-8-8/7-7-7-7\5-5-5-5\3-3-3-10-10-10\8-8-8\7-7-7\5-5-5--|
    b|-------------------------------------------------------|
    g|-------------------------------------------------------|
    d|-------------------------------------------------------|
    a|-------------------------------------------------------|
    e|-------------------------------------------------------|


    e|-8-7-5-------------------------------------5-7-8-7-----|
    b|-------7-5h7-5-5\3-3\1-3---------------5-7---------8-7-|
    g|---------------------------5-4-5p4-5-4-----------------|
    d|-------------------------------------------------------|
    a|-------------------------------------------------------|
    e|-------------------------------------------------------|


    e|----------------------------------------------12-10-8-7|
    b|-5-----------------------------------------------------|
    g|----5-4-4h5p4-------------------------5-----7----------|
    d|--------------5-7-5--------------5--7---7-5------------|
    a|--------------------7-5--7-5-5h7-----------------------|
    e|-------------------------------------------------------|


    e|-5-3---------------------------------------------------|
    b|-------------------------------------------------------|
    g|-------------------------------------------------------|
    d|-------------------------------------------------------|
    a|-------------------------------------------------------|
    e|-------------------------------------------------------|
     
  19. ayad

    ayad New Member

    i guess i am with orange. why does everybody copy paste thats nooo gooooooood
     
  20. Orange Guitar

    Orange Guitar IGT's ALLROUNDER

    mods ko koi fikar nahi hai!!!!!!!!!
     

Share This Page