Fuzon,Junoon,Call,MekalHassan,Aaroh,Jal,E.P,Mizraab,Strings,Noori,Rung,Razam Zone !!

Discussion in 'Pakistani Guitar Tabs - Submit or Request' started by zohaib, Jul 27, 2004.

  1. zohaib

    zohaib Shredder

    Enter the chords and tabs of the songs of the band whose name are given in title and make this thread a Paki Rocking Thread !!!!!!!
     
  2. hesham

    hesham New Member

    i will give noori,s songs tabs

    undefinedmanwa rai


    F

    dhol ki taal bigaray
    F
    gaaray dil jhum kay gaaray
    Bb
    apna har dard chupakay
    C F
    nachay aur sab ko nacharay
    F
    muk ghunghat dalay
    F
    naina do mat walay
    Bb C F
    aaj koi chala hai sajkay piya nagarya ray
    Dm Bb Dm C
    yay bandhan, natay, saaray tor day manva ray
    F Bb F
    Ho manva raaaay Ho Manva ray

    [BRIDGE 1]
    Bb C F
    Ho manva raaaay na tarpa ray
    Bb C F
    agan dil ki na sulka ray
    Dm Bb
    na bharka ray na chanka ray
    Dm C F
    yay naina raaaay ho manva ray

    neend aye na



    Riff 1: INTRO
    e----------------------------------------------------------|
    b----------------------------------------------------------|
    g----------------------------------------------------------|
    d---55-------8-7--77--------10-8---------------------------|
    a-------8-66----------10-88--------------------------------|
    E----------------------------------------------------------|
    The above riff goes on playing while the second guitarist plays the following
    song carefully for precise and accurate co-ordination.

    Riff 2:
    e------3-----------3------3----------------------------------|
    b--------3-1h3-11-----------3-1h3-11-------------------------|
    g----------------------------------------0h2-----------------|
    d----2-------------------2-----------------------------------|
    a---0-------------------0------------------------------------|
    E------------------------------------------------------------|

    Am* F* C*
    yeh dil ab manay na, in rahon ko jaane na * shows power chords
    Am* F* C*
    bhooli hooye in baaton main jeevan ko pehchaane na
    Am F C G
    jaage hain mere dil main kaye armaan bhoole na paayen
    Am F C
    khushion ke rangon main ghum bhi hain meri jaan
    G
    bhoolain kahan
    Am F C G
    yara neend aye na ke dil kahin toot jaye na
    Am F C G
    yara ab neend aye na ke hum kahin bhool jayen na
    Am F C G F Am
    sun le sada ay khuda mera dil ab tanha roye na

    doobara phir say


    e-----3--|------3-----|-----3----|------3-----------------------|
    B---3---3|----3---3-3-|---3---3--|----3---3-3-------------------|
    G--------|---0--------|----------|--0---------------------------|
    D-0------|-2----------|----------|------------------------------|
    A--------|------------|2---------|3-----------------------------|
    E--------|------------|----------|------------------------------|

    This part is the main song
    e----------------------------------------------------|
    B----------------------------------------------------|
    G--9-9-9-9---6-6-6-6---------------------------------|
    D--9-9-9-9---6-6-6-6--6-6-6-6---7-7-7---9-9----------|
    A--7-7-7-7---4-4-4-4--6-6-6-6---7-7-7---9-9----------|
    E---------------------4-4-4-4---5-5-5---7-7----------|

    This runs in the whole song with some variations...figure that out urself....:p:p
     
  3. hesham

    hesham New Member

    tumhansdiya

    Symbols:
    ~ - hold
    p - pull off
    h - hammer on
    / - silde up
    \ - slide down
    m - palm mute
    x - mute


    intro
    |------------------------------|
    |---xx-x--xx-x--xx-x--xx-x--x--|
    |---xx-x--xx-x--xx-x--xx-x--x--|
    |---xx-x--xx-x--xx-x--xx-x--x--|
    |---xx-x--xx-x--xx-x--xx-x--x--|
    |------------------------------| x1

    fig1
    |-------------------------------|
    |-------------------------------|
    |---9---9-9---8---9-9---8-9-8---|
    |---9---9-9---9---9-9---9-9-9---|
    |---7---7-7---7---7-7---7-7-7---|
    |---0---0-0---0---0-0---0-0-0---|

    fig2
    |-------------------------------|
    |-------------------------------|
    |---9---9-9---8---9-9---8-9-8---|
    |---9---9-9---9---9-9---9-9-9---|
    |---0---0-0---0---0-0---0-0-0---|
    |-------------------------------|

    fig3
    |-------------------------------|
    |-------------------------------|
    |---9---9-9---8---9-9---8-9-8---|
    |---9---9-9---9---9-9---9-9-9---|
    |---x---x-x---x---x-x---x-x-x---|
    |---9---9-9---9---9-9---9-9-9---|

    fig4
    |-------------------------------|
    |-------------------------------|
    |---9---9-9---8---9-9---8-9-8---|
    |---9---9-9---9---9-9---9-9-9---|
    |---x---x-x---x---x-x---x-x-x---|
    |---7---7-7---7---7-7---7-7-7---|

    from fig1 - fig4, i usually like to play the last two strings open
    cause it gives it a more resounding nice sound. and i think the
    second guitar on the song is also doing that, so feel free to hit
    the b and high e string open almost throughout the song. fig3 and fig4
    are optional, you could play fig1 twice instead of them, but they
    follow the bass guitar and sound nicer.


    pre-chorus
    |---0---0---0------0---0---0----------------------|
    |---0---0---0------0---0---0----------------------|
    |---6---4---4------6---4---4----------------------|
    |---6---4---4------6---4---4----4-4-4-4-4-4-4-4---|
    |---4---2---0------4---2---0----2-2-2-2-2-2-2-2---|
    |-------------------------------------------------|


    chorus
    a b
    |-----0-------0-------0-------0-----|-------------0----------------0---------|
    |-------0-------0-------0-------0---|-----------3---3------------0---0-------|
    |-----------------------------------|---------4------4---------6-------7-----|
    |---2-------2-------6-------4-------|-----4-4----------4---7-7-----------7---|
    |---2-------0-------4-------2-------|-----4----------------7-----------------|
    |---0-------------------------------|-----2----------------5-----------------|


    Solo bit after first chorus
    1st time 2nd time
    |-------------------------------------------|---------------|---------------|
    |-------------------------------------------|---------------|---------------|
    |-------------------------------------------|---------------|---------------|
    |---4h6-4---------6-4---------4h6-4---------|---6-4-7-6-6---|---------------|
    |---------6-7-7-------6-7-7---------6-7-7---|---------------|---6-7-6-7-7---|
    |-------------------------------------------|---------------|---------------|


    guitar 2 bit in the second verse background
    |-----0-----2---0-----2p0---2---0-----|
    |---0---0-0---0---0-0-----0---0---0---|
    |-------------------------------------|
    |-------------------------------------|
    |-------------------------------------|
    |-------------------------------------|

    |-----0-----7---0-----7p0---7---0-----|
    |---0---0-0---0---0-0-----0---0---0---|
    |-------------------------------------|
    |-------------------------------------|
    |-------------------------------------|
    |-------------------------------------|


    ending chorus (up one step)
    a b c d
    |-------------|---2---2---6---4---|---4---7---|---2---|
    |-------------|---2---2---6---4---|---4---7---|---2---|
    |---6-6-6-6---|---3---4---8---6---|---5---8---|---3---|
    |---6-6-6-6---|---4---4---8---6---|---6---9---|---4---|
    |---4-4-4-4---|---4---2---6---4---|---6---9---|---4---|
    |-------------|---2---2-----------|---4---7---|---2---|

    END---


    dil ki kasam





    [INTRO :]

    G C F G

    Am F G

    Am Am


    [STENZA 1 :]

    G G
    wadey hein, iradey hein

    F F
    hum se poocho to dil ki baatein hein

    G G
    dekhi hein hum ne jo rahein

    F F
    jin mein kaantey hein sooni raatein hein

    Am F
    ye dil thum jaaey na

    Am F
    khwabon mein kho jai na

    C F G
    ke raat baaqi hai, in raahon mein




    [CHORUS:]

    F G
    hum duniya badlein ge

    Am G
    hum ne khai hai dil ki qasam

    F G
    aasmaan cho lein ge

    Am
    cho lein ge hum

    F G
    dil ki raah dhoodein ge

    C F
    dil ne jheley hein kitney sitam

    F G
    roti yaadon ko bholein ge

    Am
    bholein ge hum


    [STENZA 2 :]
    kehta hai dil ke rukna nahi
    tum khona nahi rukna nahi
    khud hi se haarey ab too kiya pukaarey
    bhoolo na tera koi nahi
    ab tera dil lagey nahi re
    ho mera mun doley nahi re
    ab ja ke raahi, boley maahi re


    suno kay main hoon jawan


    A E
    Suno Ke Main hoon Jawan
    F#m D
    Khula hai sara aasman
    A E
    Andar karakti Bijli
    D D
    Par hai Nazara Darmiyan
    A E
    Suno Ke Main hoon Jawan
    F#m D
    Khula hai sara aasman
    A E
    Andar karakti Bijli
    D D
    Par hai Nazara Darmiyan
    A
    Suno kai main hoon jawan


    A Bm D E
    Sarak pe nikle Lagi Nahin Zindagi seedhi
    A Bm D E
    Jo Nahin Paya Woh Hai Kahan
    F#m D
    Tum Kahan
    F#m D
    Hum Kahan
    E
    Pani he ye zindagi jahan


    A E
    Suno Ke Main hoon Jawan
    F#m D
    Khula hai sara aasman
    A E
    Andar karakti Bijli
    D D
    Par hai Nazara Darmiyan
    A E
    Suno Ke Main hoon Jawan
    F#m D
    Khula hai sara aasman
    A E
    Andar karakti Bijli
    D D
    Par hai Nazara Darmiyan
    A
    Suno kai main hoon jawan


    A Bm D E
    Jhootay jo log hain, Un ki Batain Ab Nahin hum Manain
    A Bm D E
    Jo Nahin Paya Woh Hai Kahan
    F#m D
    Tum Kahan
    F#m D
    Hum Kahan
    E
    Pani he ye zindagi jahan


    A E
    Suno Ke Main hoon Jawan
    F#m D
    Khula hai sara aasman
    A E
    Andar karakti Bijli
    D D
    Par hai Nazara Darmiyan
    A E
    Suno Ke Main hoon Jawan
    F#m D
    Khula hai sara aasman
    A E
    Andar karakti Bijli
    D D
    Par hai Nazara Darmiyan
    A
    Suno kai main hoon jawan


    Solo (Over the chords of the chorus)


    F#m D
    Tum Kahan
    F#m D
    Hum Kahan
    E
    Pani he ye zindagi jahan


    <--The key of the song changes from A to B at this point-->


    B F#
    Suno Ke Main hoon Jawan
    G#m E
    Khula hai sara aasman
    B F#
    Andar karakti Bijli
    E E
    Par hai Nazara Darmiyan
    B F#
    Suno Ke Main hoon Jawan
    G#m E
    Khula hai sara aasman
    B F#
    Andar karakti Bijli
    E E
    Par hai Nazara Darmiyan
    B F#
    Suno kai main hoon jawan
    G#m E
    Ooo wohooooo oooooh

    B
    Andar Karakti
    F#
    Jo he ye Bijli
    E B
    Par Hai Nazara Darmyiyan Meri Jaan
     
  4. prash_rocks

    prash_rocks Over the Hills &amp; Far Away

    hey i just listened to mizraab's songs posted on their website, and man what a band they are!!! i was just floored.... they sound to me so much like the sophisticated bands like dream theater, their song 'aag' in particular.... absolutely awesome!! are they popular back there in pak or they are still mostly underground and unknown? way to go for those amazing guys!
     
  5. Mehvar

    Mehvar *hippie~guitarist*

    mizraab is really cool...but no one appreciates them here...
    and the track agg ppl say its a cop of dream theaters strange de ja vu
     
  6. zohaib

    zohaib Shredder

    Come On !!!

    :beer: come one guyz submit the chords of the other bands as well !!!


    hey prash submit mizraabs chords here also
     
  7. prash_rocks

    prash_rocks Over the Hills &amp; Far Away

    hey mizraab aren't really a band to play chords for. their music seems to me what i said earlier - sophisticated, and hence more complex and riff-based.
     
  8. zohaib

    zohaib Shredder

    ummm .... guytz enter the chords of other bands given ..
    cant u guyz ???
     
  9. Yousuf_guitar

    Yousuf_guitar New Member

    Jal Tabs

    Rangon Mein by Jal
    DROP D tuning(two frets low at E(low))

    B5(999XXX) G5(555XXX) C#5(11,11,11,X,X,X)D5(12,12,12,X,X,X)
    E5(high)(14,14,14,X,X,X) E5(low)(222xxx) F#5(444XXX) G5(555XXX)


    Kay rahain in rangon main
    B5 B5 B5
    kay rahain in khawabon main
    G5 G5 G5
    KAy rahain in rangon main
    B5 B5 B5
    G5 G5 G5
    strum the last G5 some hard!

    AFTER that this riff starts
    riff 1
    fig(i)
    |----x--x----x---x---x-----|
    |----x--x----x---x---x-----|
    |----x--x----x---x---x-----|
    |----9--9----11---11--11---|
    |----9--9----9----9---9----|
    |----9--9----9----9---9----|

    fig(ii)
    |----x--x----x---x---x--|
    |----x--x----x---x---x--|
    |----x--x----x---x---x--|
    |----5--5----5---5---5--|
    |----5--5----5---5---5--|
    |----5--5----7---7---7--|

    strumming and muting sequence can be learned by listening and practice!

    Chorus:
    RANGON MAIN , KHAWABON MAIN
    fig.(i)x2
    HUM SABHEE!
    fig(ii)x2
    NAINAN MAIN , AKHIYAN MAIN
    fig.(i)x2
    Tum jo kabhee!
    fig.(ii)x2

    riff 2
    B5 C#5 D5 E5(high)
    REPEAT THE CHORUS

    Then riff 2 again without E5(high)!
    VERSE 1:
    ZINDAGEE ZARA TUU JHOOM LAY
    B5 G5
    APNAY GIRD ZARA TU GHOOM LAY
    B5 G5
    BRIDGE:
    BAANT LAY SAAREE KHUSHIAAN
    E5(low) F#5 G5
    BHULA DAY SARAY GHAM
    E5(low) F#5 G5

    REPEAT CHORUS
    THEN WHEN THIS "HO HOOOO " part comes play B5 And then G5!listen the song and u will get to know !

    WHEN THE HUMMING STARTS PLAY
    riff 3
    |-------------------------------------|
    |-------------------------------------|
    |-------------------------------------|
    |-------------------------------------|
    |----0--------------------------------|
    |------5--3--2-2-2-----0--5--3--2-2--2|
    I M NOT TOO SURE ABOUT THIS BUT THIS WILL JUST MATCH!

    SAME CHORDS FOR VERSE 2 also !
    APNAY HAATH ZARA TUU UTHA LAY
    MAANG LAY RUB SAY DUA

    THEN REPEAT THE BRIDGE AND CHORUS!

    Riff 4 x2
    |-------------------------------------------|
    |-------------------------------------------|
    |-------------------------------------------|
    |-------------------------------------------|
    |--------------------------------3-3-5-5-7-7|
    |---0-0-2-2-3-3--5-5--7-5-3-2-0--3-3-5-5-7-7|


    Kay rahain in rangon main
    B5
    kay rahain in khawabon main
    G5
    KAy rahain in rangon main
    B5
    KAy rahain in khawabon main
    G5

    THEN IN THE END THE LAST "HO HOOOO" or alaap part u will play riff 2 again !!
    IT IS a very simple song !!Intro will be soon given!!!

    ==========================================================
    ==========================================================
    ***********,,,,,,,,,,,,,,,,,,,,,,,************,,,,,,,,,,,,,,,,,************


    Wo Lumhey Chords by Jal
    song = Wo Lumhey
    artist = Jal
    tabed by umar
    comments @ umarboy@hotmail.com

    c#M B
    HOOOO HOOOO HOOOOOOOOOOOO
    C#M b
    hoooo hoooo hoooooooooooooo aahhh
    ho ho ooo oooo

    C#M B
    Wo lumhey Wo ratein koi na Jane
    A
    thi kaisey batein wo bersatein
    B
    wo bhegie bhegie yadein
    A
    wo bhegie bhegie yadein

    c#M B A B

    C#M B
    Na mein Janu Na tu Jane
    C#M
    kaisa hai yea alum
    B
    koi na jane
    C#M
    phir kyon hai yea tanhaeee
    B
    kaisi hai yea ruSwaieee
    A
    ghum ho gaye kyonnn
    B
    kho gey hummmm

    C#M B

    C#M B A B [WITH MUTES]


    C#M B
    sager ki in lerroun se kehra hai mera mun
    C#M B
    sehrahoun ki in hawaoun mein kaisey aaye gi bahar
    C#M
    phir kyon hai yea tunhaiee
    B
    kaisi hai yea ruswaye
    A
    ghum ho gaye kyon
    C#M
    khoo gaye hum


    C#M B
    Wo lumhey Wo ratein koi na Jane
    C#M
    thi kaisey batein wo bersatein
    B
    wo bhegie bhegie yadein
    A
    wo bhegie bhegie yadein


    C#M B A B

    C#M
    andhie ho ya tufan ho
    B
    mere mun mein rahe tu sada
    C#M
    koi apna ho ya paraya ho
    B
    usey dhoundoun mein kahan
    C#M
    phir kyon hai yea tunhaye
    B
    kaisi hai yea ruswaye
    A
    ghum ho gaye kyon
    B
    kho geye hum Ooooooooooooooooooooo



    C#M B
    Wo lumhey Wo ratein koi na Jane
    A
    thi kaisey batein wo bersatein
    B
    wo bhegie bhegie yadein
    A
    wo bhegie bhegie yadein

    ---------------------------------------------
    ************YOUSUF*****************
    ---------------------------------------------
    LEt there be a machine to fulfill all my dreams
    Let there be a machine to stop time
     
  10. hesham

    hesham New Member

    fuzon

    aankhon kay sagar


    Intro: A B C#m

    A B
    Aakhon kay sagar
    C#m
    Hoanton hay sagar
    A B
    Lay doobay humay
    C#m
    Lay doobay humay

    e-------------------------------------------------------------------------------
    a-------------------------------------------------------------------------------
    d-------------------------------------------------------------------------------
    g¡X4/8------------4/8-----------------------------------------------------------
    b----------12--------------12---------------------------------------------------
    e-----------------------------------12--11--9----7------------------------------

    A B
    Palkon ko aiysay
    C#m
    Palkon say Choo Lay
    A B
    Keh jab dil milain
    C#m
    Doe manzil milain
    A B
    Tum bhi na bhoolo
    C#m
    Hum bhi na bhoolain
    A B
    Keh jab dil milain
    C#m
    Doe manzil milain
    A B
    Aankhon kay saagar¡K¡K¡K.




    teray bina


    C G D
    TAIRAY BINA,JIYA NAHI JAI.
    C G D
    TAIRAY BINA,JIYA NAHI JAI.
    D C G D
    TAIRAY HI MEIN NAY,HAIN SAPNAY SAJAI,
    D C G D
    TAIRAY HI MEIN NAY,HAIN SAPNAY SAJAI,
    D G
    TAIRAY BIN AY SAMAN,KIYA KHSHI KAISAY GHUM.
    C G D
    TU CHALI AYE TOU,JEE OTHAIN PHIR SAY HUM,
    D G
    TAIRAY BIN AAYY SANAM KIYA KHUSHI KAISAY GHUM,
    C G D
    TU CHALI AYE TOU JEEE OTHAYN PHIR SAY HUM
    C G D
    TU JO NAHI TOU KIYA HAI HUM,
    C G D
    TU JO NAHI TOU KIYA HAI HUM,
    C G D
    TAIRAY BINA,JIYA NAHI JAI,
    C G D
    TAIRAY BINA,JIYA NAHI JAI,
    D C G D
    TAIRAY HI MEN NAY,HAIN SAPNAY SAJAI,
    D C G D
    " " " " " " " ,
    D
    TAIRAY BIN AYE SANAM,
    G
    KIYA KHUSHI KAISAY GHUM,
    C G D
    TU CHALI AYE TOU,JEE OTHAYIN PHIR SAY HUM,
    D G
    TAIRYA BIN AY SANAM KIYA KHUSHI KAISAY GHUM,
    C G D
    TU CHALI AYE TOU JEEE OTHAY PHIR DAY HUM,
    C G D
    TU JO NAHI TOU KIYA HAI HUM,
    C G D
    TU JO NAHI TOU KIYA HAI HUM,
    C G D
    TAIRAY BINA,JIYA NAHI JAI
    C G D
    TAIRAY BINA,JIYA NAHI JAI

    N SOOOOO ON............
    TAIRAY BINA JIYA NAHI JAI
     
  11. zohaib

    zohaib Shredder

    yaar koimekaa hassan ki taraf bhi dekho !!!!
    and what about others also man
     
  12. ali_123

    ali_123 New Member

    plz help give me the chords of sajan of mekaal hasan band ....its really a gr8 song no difficulty in playing chords as he just he is just strumming round few chords thnks
     
  13. sam_guitar

    sam_guitar New Member

    hay Can you tell me the strumming pattren of tera bina pplz ii need it badly
     
  14. Quadrophenia

    Quadrophenia New Member

    #1 02-13-2005, 09:54 PM
    entityp4ever
    Newbie
    Join Date: Feb 2005
    Posts: 12

    Hey im a newbee:Manchala by Jal

    --------------------------------------------------------------------------------

    Hi, my name is Mazin! Im a new bee but have been playing the guitar for over 4 years
    Hope u like Manchala by Jal

    G5:077xxx D5:355xxx E5:244xxx B5:355xxx
    ---------------------------
    ---------------------------
    ---------------------------
    ---------------------------X4
    ---4-5---7-5--4-5-7-------
    0-0----0-----0---0--------


    ------------------12-12-12-12-12-12-12-7~-s1---------------
    -----------------------------------------------------------
    -----------------------------------------------------------
    --9--7--5--4--2--------------------------------------------
    -0--0--0--0--0---------------------------------------------
    0--0--0--0--0----------------------------------------------


    -----------------
    -----------------
    -----------------
    -----------------X4
    ---4-5---7-5-----
    0-0----0---------


    -----------------------------------------------------------
    -----------------------------------------------------------
    -----------------------------------------------------------
    --9--7--5--4--2--2-4-5-4-2-0---2--2--2--2--2--2--2-2-------
    -0--0--0--0--0----------------0--0--0--0--0--0--0----------
    0--0--0--0--0----------------0--0--0--0--0--0--0-----------


    G5 G5 G5 G5 G5 G5 D5 D5 D5 D5 D5 D5
    Koi Manchala

    G5 G5 G5 G5 G5 G5 D5 D5 D5 D5 D5 D5
    Chala apni dhun main

    E5
    Kai rastay milay
    B5
    Har rasta hai juda
    E5
    Yeh dil ki baat hai

    Yeh har dil hai khafa

    -----------------
    -----------------
    -----------------
    -----------------X4
    ---4-5---7-5-----
    0-0----0---------

    ------------------12-12-12-12-12-12-12-7~-s1---------------
    -----------------------------------------------------------
    -----------------------------------------------------------
    --9--7--5--4--2--------------------------------------------
    -0--0--0--0--0---------------------------------------------
    0--0--0--0--0----------------------------------------------

    -----------------
    -----------------
    -----------------
    -----------------X4
    ---4-5---7-5-----
    0-0----0---------

    G5 G5 G5 G5 G5 G5 D5 D5 D5 D5 D5 D5
    Kahin koi mila

    G5 G5 G5 G5 G5 G5 D5 D5 D5 D5 D5 D5
    Mila is safar main

    E5
    Yeh dil ki pyas hai
    B5
    bas ek hi aas hai
    E5
    Is aas ko mita
    B5
    Yeh pyas tu bujha

    ---------------------------------------------------
    ---------------------------------------------------
    ---------------------------------------------------X2
    -2-2/2/2--0-7-5-4-2-0--2-2/2/2-0-5-4-2-5-4-2--5-5--
    -0-------0-------------0------0---------------5-5--
    ----------------------------------------------3-3--


    ------10-7-7----------10-7-12-10------------------- ------10-7-7...------------
    8-7-8---8-8-7-8--8-7-8--8-------------------------- -8-7-8--8-8...-------------
    --------------------------------------------------- ---------------------------
    ---------------------------------------------------X2 ---------------------------
    --------------------------------------------------- ---------------------------
    --------------------------------------------------- ---------------------------

    --------------------------------------------
    --------------------------------------------
    --------------------------------------------
    7-7-7-7-7-10-9-7----------------------------X3
    7-7-7-7-7-10-9-7----------------------------
    5-5-5-5-5-8--7-5----------------------------


    ---------------------------------
    ---------------------------------
    ---------------------------------
    4-4-4-4-7-6-4--------------------X3
    4-4-4-4-7-6-4--------------------
    2-2-2-2-5-4-2--------------------

    ---------------------------------
    ---------------------------------
    ---------------------------------
    5-5-5-5-8-7-5--------------------X3
    5-5-5-5-8-7-5--------------------
    3-3-3-3-6-5-3--------------------

    ----------------------------------------------------
    ----------------------------------------------------
    -7h9-9-9-7h9-11-11-11-9h11-12-12-12-11-11-9-7-------
    ----------------------------------------------------X4
    ----------------------------------------------------
    ----------------------------------------------------

    -------------------------------------------------------
    -------------------------------------------------------
    -------------------------------------------------------
    9h11-11-11-9h11-12-12-12-9h12-14-14-14-12-11h12h11-9---X4
    -------------------------------------------------------
    -------------------------------------------------------

    0-12s3-2-2s10-10s2-0---0-12s3-2-2s10-10-1-2-1-0-3-3s5-
    ------------------------------------------------------
    ------------------------------------------------------
    ------------------------------------------------------
    ------------------------------------------------------
    ------------------------------------------------------

    -----------------
    -----------------
    -----------------
    -----------------X4
    ---4-5---7-5-----

    Original Tabs Aik Din Aayega by JAL!!! Accurate one

    --------------------------------------------------------------------------------


    Hey im Asad...... i tried the chords of 'ik din aaye ga' by JAL...... and these look the best to me...... neways im new here but not a new guitarist

    E5 (079900)
    C#5 (046600)
    B5 (024400)
    A5 (002200)

    INTRO:

    E--------0---------------0-------------0---------0--- }
    B-------0-0---------------0-----------0-0---------0-- }
    G------9---9---------------9---------2---2-----4---4- }
    D-----9---------------9-------------2---------4------ } 2x
    A----7---------------0-------------0---------2------- }
    E---0---------------9-------------0------------------ }


    E--------------------
    B--------------------
    G---5----5-----5-----
    D--5-5----5-----5----
    A-3----3-----3-------
    E--------------------
    Intro ends here.....


    E5 C#5
    teri aankhein abb houn gi na kabhi num
    E5 C#5
    tu jo dekh le to bhula doun main sarey ghum
    A5 B5 C#5 B5
    tu jo chahey to badley ga mausam
    E5 C#5
    ye jo pal hai terey khushion se bhar lo tum
    E5 C#5
    woh beetay din unhain yaad phir se ker lo tum
    A5 B5 C#5 B5
    tu jo chahey to badley ga mausammmmmmm
    E5
    ke dil tu rona nahin
    C#5
    ke khuawb adhooray nahin
    E5 C#5
    ke armaan sarey terey houn gay pooray kabhi
    A5 B5
    ik din aaye ga tu yuun gaye ga
    E5
    aaaaaaaaaaaaaaaaaaaaaaaaaa
    C#5
    hooooooooooooooooooooooooooooooooo
    E5
    aaaaaaaaaaaaaaaaaaaaaaaaaaa
    C#5
    hooooooooooooooooooooooooo


    OK this is it..... but after he sings BADLEY GA MAUSAMmmmmmm..... then slide the chors B5 to C5 (053300)..... chk out n do lemme know
     
  15. Quadrophenia

    Quadrophenia New Member

    GAL SUN JA
    Tabber: Usman aka Quadrophenia.


    With the HO HO..
    E5,D5,C5,D5,A5,B5

    the main grungy riff

    Alternates between

    E5 and C5

    VERSE

    teray bajaoun tay..
    E5,D5,C5,D5,E5

    then comes solo
    1:51
    (*)
    E-----------------------13---15b17--15b17---15--13-----------------
    B------/15--15b17--15---------------------------------15-hold-------
    G--------------------------------------------------------------------


    (*) From top..just to get the continuation right
    e15--13----------------------------------------------------
    b---------15-hold-- 15---13---12-hold---12----11-----------
    g----------------------------------------------------12 hold


    E-------13---15--15b17-15b17---------
    b--15----------------------------------
    G--------------------------------------

    Tricky Bit

    E--14--16--14-17--14-17--14-16---------------------------------------
    B---------------------------------14--16--14-17--14-17--14-16--14--17
    second time around hes goes alot faster..i think hes playing it in some kinda rythem and the bright sound isnt just distortion.
    then he plays a tremolo

    E--12---14---16--18--20--21b22------------------------


    also there is a riff in the end


    E---15----15--14----15--13----15b16---13-12-13-13---15b16
    b------15--------15-----------------------------------------


    Please do give me feedback on this tab .
    It is pretty much accurate..except for the tricky bit..i'm not too sure about it but it sounds alright if u play it..if anyone else works it out..please do let me know
    suggestions ,comments and corrections are always welcome
    oh and one last thing when playing the main riff.. there is some kinda bend in the power chords...just bend the power chords i guess..
     

Share This Page