Four beautiful songs!!!!

Discussion in 'Tamil Guitar Tabs - Submit or Request' started by raghu_rocks, Apr 12, 2009.

  1. raghu_rocks

    raghu_rocks New Member

    NAYAGAN


    here is the tune for nayagan as for as i know...

    ----------0-7-5-7-5-3-2-2-3-0------0---------------------------
    --------------------------------4-3-----------------------------
    ----------------------------------------------------------------
    ----------------------------------------------------------------
    ----------------------------------------------------------------
    ----------------------------------------------------------------



    uppu kallu<karuppanasamy kuthagaidharar>


    ---------0-7-5-7-3-5-3-2-2-3-2-0-0----------------------------
    ----------------------------------------------------------------
    ----------------------------------------------------------------
    ----------------------------------------------------------------
    ----------------------------------------------------------------
    ----------------------------------------------------------------



    nerukku ner


    -----------2-3---2-2-3---2-3------------------------------------
    ---------3-----3-------3-----3-3-3-3----------------------------
    -----------------------------------------------------------------
    -----------------------------------------------------------------
    -----------------------------------------------------------------
    -----------------------------------------------------------------

    mission impossible

    ------------------------------------------------------------------
    ------------------------------------------------------------------
    ------------------------------------------------------------------
    ----------------2-3-----------------------------------------------
    -------4-4-4-4------4-4-4-4-2-3----------------------------------
    ------------------------------------------------------------------


    I am a new student...pls forgive me if any thing sounds wrong..!!!
     
  2. appu_k10

    appu_k10 New Member

    can u name the songs pls????
     
  3. raghu_rocks

    raghu_rocks New Member

    nayagan--theme music
    karrupannasamy kuthaigaidharar---uppu kallu
    nerukku ner--mana virumbhudhe
    mission impossible--theme music
     
  4. jose4u1y

    jose4u1y New Member

    thanks 4ur tabs....
     
  5. raghu_rocks

    raghu_rocks New Member

    pls comment..!!!!
     
  6. sathish_gerrard

    sathish_gerrard New Member

    hi raghu, nice try but do try to go further beyond the pallavi and dwell into the charanam, ur tabs simple but tooo little in content
     
  7. prejava

    prejava New Member

    Excellent Dude
     
  8. raghu_rocks

    raghu_rocks New Member

    yeah satish..!!
    actually iam learning guitar myself..!!
    so i could find only this much..!!
    will definitely try for charanam..
     
  9. raghu_rocks

    raghu_rocks New Member

    http://www.indianguitartabs.com/images/aria/misc/clear.gif


    yeah satish..!!
    actually iam learning guitar myself..!!
    so i could find only this much..!!
    will definitely try for charanam..
     
  10. raghu_rocks

    raghu_rocks New Member

    mission impossible further continuation..

    ----15-12-------15-12----15-12----------------------
    ----------13------------------------------------------
    -----------------------15-------14--12-14-12-14-----
    -----------------------------------------------------------
    -------------------------------------------------------
    ------------------------------------------------------
     
  11. baaji

    baaji New Member

    hey in which string shuld we play tis
     
  12. gpinto

    gpinto New Member

    here is the tune for nayagan as for as i know...

    ----------0-7-5-7-5-3-2-2-3-0------0---------------------------
    --------------------------------4-3-----------------------------
    ----------------------------------------------------------------
    ----------------------------------------------------------------
    ----------------------------------------------------------------
    ----------------------------------------------------------------

    Can i get tabs after this?
     

Share This Page