extremely sry for posting my cover (of aadat) in this forum

Discussion in 'Pakistani Guitar Tabs - Submit or Request' started by max_payne16, Oct 28, 2005.

  1. max_payne16

    max_payne16 New Member

    i want to say sorry to all the users in this forum
    i m posting my cover here coz i dunno whr to post it
    but this s goin to be my last cover in this forum
    coz sumone will surely tell me whr to post the covers

    here is the song -> my recorded aadat with guitar and vocals

    http://rapidshare.de/files/6884993/aadat_nikhil.mp3.html
    OR
    http://www.soundclick.com/nikhiljalholic

    the solo is not yet covered
    and thr s lil problem wid
    "chahat aisi hai ye teri" end part (sound editor problem)

    plz send me a review
     
  2. FaWaD

    FaWaD New Member

    Guitar needs practice.. though i liked the vocals.. nice effort..

    i m amazed no one said anything about it so far..
     
  3. max_payne16

    max_payne16 New Member

    wat do u mean u r amazed??
    i mean,,,,, people should praise it or criticise?
    lol :p
    the topic says i ve mistaken to post my song here
    and now tht i kno whr to post covers.....
    i have posted mine thr
    so people who r active in this forum have replied in tht forum
    thnx for replying
     
  4. 7seven7

    7seven7 New Member

    vocals r jst gr8 man....nd guitar ofcors xcelent.....reps for ya
     
  5. har1s

    har1s <b>Untitled</b>

    post it in IGT soundtrack forum... btw..nice coverr
     
  6. Aka Oz

    Aka Oz /\K/\ - Ozy

    good cover,,,,,,,,,,,,,,,,,,,,,,err
     
  7. max_payne16

    max_payne16 New Member

    thank u guys.....thank u very much !!!!!!!!!
    i m gonna post sum more of em
    but after ma exams get over thts mid-december
    so plz watch for em
     
  8. faiqrock

    faiqrock XaiQ

    CHORDS ARE oK
    THE FIRST LEAD WAS WRONG....I THINK U WERE SAYING SOLO TU THIS LEAD...MAY BE..WELL HERE IT IS...N MAN UR STRUMMING IS ROCKING :rock: :rock: ...KEEP IT UP...N IMPROVE UR VOCALS...K
    HERE IS THE LEAD....WHICH COMES AFTER aB TU ZINDA HOON .........
    e|-------4----7--4--------4----7--4----------2------4------5---------|
    B|---5-----5----------5-----5------------2-----2------2------2-------|
    G|-6---6------------6---6--------------2---2-----2------2------2-----|
    D|-------------------------------------------------------------------|
    A|-------------------------------------------------------------------|
    E|-------------------------------------------------------------------|

    e|-------4----7--4--------4----7--4----------2-------2---------------|
    B|---5-----5----------5-----5------------2-----------2---------------|
    G|-6---6------------6---6--------------2---2----2----2---------------|
    D|-------------------------------------------------------------------|
    A|-------------------------------------------------------------------|
    E|-------------------------------------------------------------------|
     

Share This Page