everything i do.

Discussion in 'English Guitar Tabs - Submit or Request' started by pukii, Jun 29, 2006.

  1. pukii

    pukii New Member

    could ne1 post me d inttro of everything i do by bryan adams...plzzzzzzzz i luv dat song n wanna play it dam bad!!!!!!!!!
     
  2. peng123

    peng123 New Member

    Intro Lead:
    E -2-2-2---2-3-3-2-0-0-0---0-5-5-0-3-3-3-----0-2---0-
    B -3-3-3-----------2-2-2-----------3-3-3---3-----3---
    G -2-2-2-----------2-2-2-----------0-0-0-------------
    D -0-0-0-----------2-2-2-----------0-0-0-------------
    A -----------------0-0-0-----------2-2-2-------------
    E ---------------------------------3-3-3-------------
    ^\D major ^\A major ^\G
    chill outhttp://www.indianguitartabs.com/images/icons/icon12.gif
     
  3. neel_mitra00

    neel_mitra00 New Member

    hello, can anyone help me understand how to understand these notations...i just can get it right...this song is gr8
     
  4. paranoid13rohan

    paranoid13rohan .: iNDiaN iDioT 3.0 :.

    i guess this is what you are asking for ...


    e|---|-0-3-1-0---|---3-3-----|-----0------
    b|-1-|---------3-|-3-----1-1-|-1-3---1-3--
    g|---|-----------|-----------|------------
    D|---|-----------|-----------|------------
    A|---|-----------|-----------|------------
    E|---|-----------|-----------|------------


    this sounds better on the piano ...
     
  5. LiL^..diva*

    LiL^..diva* New Member

    (F#F#F#)(F#AGF#)(EEE-open)(E-open AA)(EAA)(DDD)(DEF#D)(EEE)
    1 1 1 1 111 111 1 11 111 222 2112 111====strings

    E note is open thruout
    ....hoe u get it...d timing shud b rite!!!
     
  6. SG1

    SG1 "Brown Jesus"

Share This Page