(eps) kiya hota intro

Discussion in 'Pakistani Guitar Tabs - Submit or Request' started by lithium1, Mar 6, 2005.

  1. lithium1

    lithium1 New Member

    this is my first post hope u lyk them.
    intro--rhythem

    E-0-0----------------------------------3-3-------------5-5---------------
    a---------2-2-------3-3---3-3------3-----------2-2-------------2-2-----2
    d-----4-----------------4--------4---------4----------------4---------4
    g--------------0---------------0-------------------0----------------0----
    b----------------------------------------------------------------------
    e----------------------------------------------------------------------

    then comes the lead
    play this a bit fast
    E-
    a-
    d-7-------------------------------9--9-----------------------------
    g----9--7h9--7h9----------9---7--------9--7h9--7h9-----------9---
    b------------------7h8--7----------------------------8-10-8-7
    e-


    E-
    a-
    d-9--------------------------------9--7
    g------9--7h9--7h9---------9--7-
    b-------------------7h8--7
    e-
     
  2. ImR@|\|

    ImR@|\| GuiTar MaNiaC

    Solo is a bit gud.. well done..
     
  3. BigBoss

    BigBoss New Member

    yar i cant play the intro!!!!!!!!!!!!! is the intro correct imran???
     
  4. lithium1

    lithium1 New Member

    intro is not that perfect i guess i am missing some thing... but im dam sure about the lead
     
  5. BigBoss

    BigBoss New Member

    abay yar ye lead kab aata hai kya hota(unplugged) mein.. konse verse ke baad???
     
  6. lithium1

    lithium1 New Member

    yar gab verse khatam hota hay pehla us kay bad xulfi plays it.. download the song which they played live on the musik
     
  7. BigBoss

    BigBoss New Member

    acha the 1 he plays very fast... got it.. let me try...
     
  8. nadish

    nadish Active Member

    Lithium1! Ur the man boss...Gud work. Keep it up
     
  9. nadish

    nadish Active Member

    U know, Lot of ppl were looking 4 that tabs, And I think they all must b happy now.... Incuding me :)
     
  10. BigBoss

    BigBoss New Member

    stilll tryin.. a bit slow but it sounds ryte... jus little more practice... way to go Lithium1!!!!
     
  11. BigBoss

    BigBoss New Member

    yar how does this hammer thing goes... this 7h8... it means like u hve ur finger on the 7th fret.. than u hit the sting n along hitting it u put the same finger on 8th fret... ryte???? or sumthin else???
     
  12. nadish

    nadish Active Member

    Hammer ons

    The concept of the hammer-on is fairly simple - playing a note, then, WITHOUT re-picking, playing another note on a higher fret on the same string. Just check out the audio clip from the link below...

    http://www.free.7host06.com/nadish/hammeron.mp3
     
  13. BigBoss

    BigBoss New Member

    man the site isnt opening.. guess ma server is abit slow... its like ur finger remains on 7th fret then when u hit the string.. u put another finger on the 8th fret quite hard along havin a finger on the 7th fret...(i hope i know wat im speakin :think: )
     
  14. ImR@|\|

    ImR@|\| GuiTar MaNiaC

    Yeah u r rite BoSs :)
     
  15. ImR@|\|

    ImR@|\| GuiTar MaNiaC

    Alrite lithium u have done the solo.. Intro is cumin up soon... so stay tuned cuz ur is totally wrong.. it juz totally opposite to mine..
     
  16. Famio

    Famio New Member

    man lithium's intro sounds good to me, lets see what imran has to offer, by the way, he plays some power chords in the song. does any one wich ones ?
     
  17. lithium1

    lithium1 New Member

    thanx man.... imran this is the one ep played live on the viewers choice.. its wrong but not totally wrong and the solo is absolutely correct
     

Share This Page