English Beginner's Songs

Discussion in 'English Guitar Tabs - Submit or Request' started by Meshy360, Aug 24, 2008.

  1. Meshy360

    Meshy360 New Member

    can some on help me to put more beginner songs i will put some in

    rep me
     
  2. Meshy360

    Meshy360 New Member

    Here is the James Bond theme tab


    This is my first tab hope you like it

    e----------------------------
    B----------------------------
    G----------------------------
    D----------------------------
    A---2---3---4---3------------
    E-----0---0---0---0---------- Repeat this Twice

    e----------------------------
    B----------------------------
    G----------------------------
    D----------------------------
    A----------------------------
    E---0-0-0-2-0-2-3-3-3-2-0-2-- Repeat This Twice

    e----------------------------------
    B--------5--3----------------------
    G-----0------0-2-4---0-2-0-4--2----
    D--2------------------------2---4--
    A----------------------------------
    E----------------------------------

    There you go the James Bond Theme
     
  3. Meshy360

    Meshy360 New Member

    Here is Harry Potter theme tabs

    E––0—3—2–0–7–5—2—0—3—2-------0-----------------------------
    B–0-----------------------3------3---0---------------------
    G----------------------------------------------------------
    D----------------------------------------------------------
    A----------------------------------------------------------
    E----------------------------------------------------------

    E----0-3--2–0---7—10—9—8—5—8—7–6–2–--0-----------------------
    B–0----------------------------------------------------------
    G------------------------------------------------------------
    D------------------------------------------------------------
    A------------------------------------------------------------
    E------------------------------------------------------------
     
  4. Meshy360

    Meshy360 New Member

    Here is the Godfather theme tune from the movie

    e----------------------|-------------------------------
    B-2---1-2-3---2-2------|--2---1-2-3---2-2--------------
    G------------------2---|--------------------1----------
    D----------------------|-------------------------------
    A----------------------|-------------------------------
    E----------------------|-------------------------------

    e---------0--------------|-----------------------------
    B-2---1-2-----2-1--------|--------2---1----------------
    G-------------------4-2--|--2-1-2-------1--------------
    D------------------------|-----------------------------
    A------------------------|-----------------------------
    E------------------------|-----------------------------

    e------------------------|-----------------------------
    B-2---1-2-3---2-2--------|--2---1-2-3---2-2------------
    G------------------2-----|-------------------1---------
    D------------------------|-----------------------------
    A------------------------|-----------------------------
    E------------------------|-----------------------------

    e----------0......------------------------------------
    B-2---1-2---------------------------------------------
    G-----------------------------------------------------
    D-----------------------------------------------------
    A-----------------------------------------------------
    E-----------------------------------------------------
     
  5. Meshy360

    Meshy360 New Member

    You can request song and i will try me hardest
    to get them for you rep me
     
  6. Meshy360

    Meshy360 New Member

    Does anyone KNOW the chord for the poster girl by backstreet boys

    I can't find it, if u can it would be great full and i will rep u and i will get my friend to rep u too

    post: if u know where to get it
    : or post the chord

    good lucky, hurry up and get back
    cya
     
  7. Meshy360

    Meshy360 New Member

    Here is a great website if u get struck and if u can't work out chord like is
    e.g E maj13#11, F maj13#11 and etc

    here is the website http://www.all-guitar-chords.com/
    make sure to check it out cya rep me
     
  8. Meshy360

    Meshy360 New Member

    here is the Pirates of the Caribbean guitar tabs

    E----------------------0-------------
    B------0-0--0-2-3-3--3---2-2-0------0
    G--0-2--------------------------2-2-- 2x
    D------------------------------------
    A------------------------------------
    E------------------------------------

    E----------------------0-3-3-2-0-2--------------0-2----------------
    B------0-0--0-2-3-3--3-------------0--0-2-3-3-3-----0--0-3-2-0----0
    G--0-2---------------------------------------------------------2---
    D------------------------------------------------------------------
    A------------------------------------------------------------------
    E------------------------------------------------------------------

    OTHER PART

    E-----0-2-3-2-2-2-2-0--0----------------------
    B-0-3--------------------3-2-3-2-2-0----------
    G---------------------------------------------
    D---------------------------------------------
    A---------------------------------------------
    E---------------------------------------------

    E-----0-2-3-2-2-5-2-0--0----------------------
    B-0-3--------------------3-2-3-2-2-0----------
    G---------------------------------------------
    D---------------------------------------------
    A---------------------------------------------
    E---------------------------------------------
     
  9. Meshy360

    Meshy360 New Member

    All 3 Smoke on the water guitar tabs

    This has all 3 versions of smoke on the water. I hope you all like it.


    Version 1 (Easiest)

    ----------------------------------
    ----------------------------------
    ----------------------------------
    ----------------------------------
    ----------------------------------
    --0-3-5---0-3-6-5---0-3-5-3-0-----


    Version 2 (Moderate)

    -----------------------------------
    -----------------------------------
    -----------------------------------
    -----------------------------------
    -----------------------------------
    -2-5-7--2-5-8-7---2-5-7-5-2--------



    Version 3 (Most Difficult of the 3)

    ------------------------------------
    ------------------------------------
    ------------------------------------
    ------------------------------------
    ---3-5-----3-6-5-----3-5-3----------
    -5-------5---------5-------5--------
     
  10. Meshy360

    Meshy360 New Member

    Heres Twinkle Twinkle Little Star:)

    (Can Be Played On Any String)

    E|----------------|----------------|
    B|----------------|----------------|
    G|----------------|----------------|
    D|----------------|----------------|
    A|----------------|----------------|
    E|--0-0-7-7-9-9-7-|-5-5-4-4-2-2-0--|

    E|----------------|----------------|
    B|----------------|----------------|
    G|----------------|----------------|
    D|----------------|----------------|
    A|----------------|----------------|
    E|--7-7-5-5-4-4-2-|--7-7-5-5-4-4-2-|

    E|----------------|----------------|
    B|----------------|----------------|
    G|----------------|----------------|
    D|----------------|----------------|
    A|----------------|----------------|
    E|--0-0-7-7-9-9-7-|-5-5-4-4-2-2-0--|
     
  11. y_muralee

    y_muralee New Member

    Awsome Tabs Meshy!

    Simply Superb brother ! Your tabs are simple and easy to play, njoyed playing the god father theme.Keep posting !
    Also you were asking for chords for some songs check this website, you get any versions and use the ones with 5* rating.

    http://www.ultimate-guitar.com/

    Cheers !
     
  12. Meshy360

    Meshy360 New Member

    thanks

    thank mate
     
  13. Meshy360

    Meshy360 New Member

    here is the china song tab rep me

    e|-12-12-12-12 10-10-7-7-10/-12-12-12-12-10-10-7-7-5/-(Repeat first-bar)/-12-12-12-12-10-10-12-15|



    And there it is....Enjoy.
     
  14. y_muralee

    y_muralee New Member

    Sure dude !

    Hey I can donate all my points to you Meshy bro :) Hey by the way is it possible for you to listen to mp3 and give chords, tabs etc,if yes lemme know, I need help with few songs, they r not hindi or english, they r in telugu.
    cheers
     
  15. g_kepnrock

    g_kepnrock New Member

    well done

    keep on rocking
     
  16. Krazy 4 Guitar

    Krazy 4 Guitar Rockstar

    Nice Work Meshy
     
  17. Meshy360

    Meshy360 New Member

    please request more song and i will put them on


    cheers bye
     
  18. aniketdave

    aniketdave aniket

    Complete Godfather theme


    hey.. nice work..
    but this is not the complete godfather theme..

    here's the rest of it -



    e-----9--12--11--9--12--9--11--9-------------------------
    B--9----------------------------------10--12--9------------
    G-------------------------------------------------------------
    D-------------------------------------------------------------
    A-------------------------------------------------------------
    E-------------------------------------------------------------


    e-----9--12--11--9--12--9--11--9-------------------------
    B--9----------------------------------9--8--7---------------
    G-------------------------------------------------------------
    D-------------------------------------------------------------
    A-------------------------------------------------------------
    E-------------------------------------------------------------


    e------------8--11.....-------------8--9.....-----------------
    B---7--10-----------------7--10-----------------------------
    G-------------------------------------------------------------
    D-------------------------------------------------------------
    A-------------------------------------------------------------
    E-------------------------------------------------------------


    e---------------------------------------------------------------
    B-----------12--10--9--12--10--10--9--9--------------------
    G-------9------------------------------------------------------
    D--11-----------------------------------------10--11---------
    A---------------------------------------------------------------
    E---------------------------------------------------------------
     
  19. sydneyc

    sydneyc New Member

    thanks for the tabs of all songs.
     
  20. Uploader

    Uploader New Member

    OR....

    B----------------------------
    G----0-3-2-0-3-0-2-0---------
    D--0-----------------1-3-0---
    A----------------------------


    B----------------------------
    G----0-3-2-0-3-0-2-0---------
    D--0-----------------1-3-4---
    A----------------------------


    B--------0-------------------
    G------1--------1-2----------
    D--0-3------0-3--------------
    A----------------------------


    B----------------------------
    G-------0-----0--------------
    D---------3-2---3-2-1-2------
    A--0-3------------------4-0--


    This my first time to write tabs EVER.

    Meshy, your tabs are awesome ;)
     

Share This Page