Enadhuyire From Bheema

Discussion in 'Tamil Guitar Tabs - Submit or Request' started by vivekfinearts, Jan 4, 2009.

  1. vivekfinearts

    vivekfinearts New Member

    Hi Friends,

    Here's a Song from Bheema (Enadhuyire... Enadhuyire..)

    e-1-2-4-6-6----4-6-----6----4-6------------------
    B-------------------7-6----------7-6-6---4-6-7-6-6
    G-------------------------------------------------


    e--6-8-9-8-6----4-6-8-6-4---2-2-2-6-9-8s6-6-8---
    B-------------------------------------------------
    G-------------------------------------------------

    That's all i could imagine...

    Comments please !!
     
  2. hamar316

    hamar316 New Member

    nice...bt can i get chords..or at least tell me wat key is the song played in???
     
  3. navee

    navee New Member

    enathuyiree-bheema chords

    enathuyire enathuyire...
    FF#G#Bb G#BbG#F#Bb
    Bbm---------Bbm

    enakenave nee kidaithaai..
    G#BbG#F#F Eb F#F F..
    Fm------------Eb---Eb-------

    enathurave enathurave
    kadavulai pol nee mulaithaai..

    nedunjalaiyil padum paatham pol
    Bb-C-C#C-Bb--Ab-Bb-C--Bb----Ab
    Bbm------------Ab-------------------

    serkiren vaalum kaalame...
    F#F#F#--Bb-C#--C-Bb-C..
    F#--------Bbm----------------

    varum naatkale, tharum pookale
    Bb-C-C#C-Bb--Ab-Bb-C--Bb----Ab
    Bbm------------Ab-------------------

    neelume kadhal kadhal vaasame...
    F#F#F#-Ab--F#-Ab--F#--Bb-F#-F....
    F#---------------------------------F

    enathuyire, enathuyire....
    Bbm-----------Bbm---------

    enakenave nee kidaithaai...
    Eb-----------Eb------------

    enathurave, enathurave..
    Bbm-----------Bbm----------

    kadavulai pol nee mulaithaai...
    Eb-----------Eb------------

    Ini irave illai,
    C#Eb-EbFF--EbF
    C#--------------

    kanden un vizhigalil kizhaku dhisai...
    AbF#---F--D#FF-F#-F#AbBb-AbF#--
    C#---------Eb------------------------
     
  4. v.raghura87

    v.raghura87 Member

    Superb ya, fentastic tabs, thank you soooooooooooooooooooooooooooooo much

    Hi

    I am V.Raghuraj.

    Superb ya, fantastic tabs, thank you soooooooooooooooooooooooooooooo much


    *********************************************************************************************************************************************


    QUOTE=vivekfinearts;380099]Hi Friends,

    Here's a Song from Bheema (Enadhuyire... Enadhuyire..)

    e-1-2-4-6-6----4-6-----6----4-6------------------
    B-------------------7-6----------7-6-6---4-6-7-6-6
    G-------------------------------------------------


    e--6-8-9-8-6----4-6-8-6-4---2-2-2-6-9-8s6-6-8---
    B-------------------------------------------------
    G-------------------------------------------------

    That's all i could imagine...

    Comments please !![/QUOTE]
     
  5. v.raghura87

    v.raghura87 Member

    Hi friends

    I request the tabs for the complete song.

    Thanks
    *********************************************************************************************






     
  6. sathish lion

    sathish lion New Member

    please post full tabs
     
  7. sathish lion

    sathish lion New Member

    Ini Iravey Illai Kanden Un Vizhigalil Kizhakku Dhisai
    23 5 7 7 5 7 97 5 57 79 991097

    Ini Pirivey Illai, Anbey Un Ularalum Enakku Isai


    try this ... tmrw i willl try
     
  8. melbin

    melbin New Member

    Hi, Can you please share the tabs for the complete song?
     

Share This Page